» » »

Everything That You Are Bass tabs (ver.2)

Artists:  A B C D E F G H I J K L M N O P Q R S T U V W X Y Z # 

Everything That You Are Bass tabs (ver.2)

Priestess
Rating:
4/5 (1 vote)

Hard to play? Try these video lessons and learn fast.
                PRIESTES - EVERYTHING THAT YOU ARE - HELLO MASTER

i made this by ear, in standard tunning

Intro 0:05                                                           X3
|----------------------------------------------------------------------|
|----------------2-4--------2-0-0-0-0-0-0-0-2~-------------------------|
|-2--2-2-2-2-2-2-------2-0---------------------------------------------|
|----------------------------------------------------------------------|

0:21
|----------------------------------------------------------------------|
|-------------------------0--------0-----------------------------------|
|---0-2------0-2------0-2----2---0---2---0-2~--------------------------|
|-2--------2--------2----------2-------2-------------------------------|

Verse 0:32                                                           X4
|----------------------------------------------------------------------|
|----------------2-4--------2-0-0-0-0-0-0-0-2~-------------------------|
|-2--2-2-2-2-2-2-------2-0---------------------------------------------|
|----------------------------------------------------------------------|

0:54
|--------------------------|
|-4-4---5-5---7-7---8-8----|
|--------------------------|
|--------------------------|

Chorus 0:56
|----------------------------------------------------------------------|
|-----------------------------4-4---5-5---7-7---8-8--------------------|
|-2~-2-2-2-2-2-2-2-2-2-2-2-2-------------------------------------------|
|----------------------------------------------------------------------|

Bridge 1:01                                                    1:23
|-------------------------------------------------------------|--------|
|-------------------------------------------------------------|0~------|
|-2~-2-2-2-2-2-2-2-2-2-2-2-2-2-2-2-2-2-2-2-2-2-2-2-2-2-2-2-2-2|--------|
|-------------------------------------------------------------|--------|

Verse 1:28                                                           X4
|----------------------------------------------------------------------|
|----------------2-4--------2-0-0-0-0-0-0-0-2~-------------------------|
|-2--2-2-2-2-2-2-------2-0---------------------------------------------|
|----------------------------------------------------------------------|

1:49
|--------------------------|
|-4-4---5-5---7-7---8-8----|
|--------------------------|
|--------------------------|

Chorus 1:52
|----------------------------------------------------------------------|
|-----------------------------4-4---5-5---7-7---8-8--------------------|
|-2~-2-2-2-2-2-2-2-2-2-2-2-2-------------------------------------------|
|----------------------------------------------------------------------|

Solo 1:57                                                            X4
|----------------------------------------------------------------------|
|----------------------------2~--0-0-0-0-0-0-0-0-0-0-0-0-0-0-0-2~------|
|-2~-2-2-2-2-2-2-2-2-2-2-2-2-------------------------------------------|
|----------------------------------------------------------------------|

2:18
|--------------------------|
|-4-4---5-5---7-7---8-8----|
|--------------------------|
|--------------------------|

(guitar bridge)

Verse 2:27                                                           X4
|----------------------------------------------------------------------|
|----------------2-4--------2-0-0-0-0-0-0-0-2~-------------------------|
|-2--2-2-2-2-2-2-------2-0---------------------------------------------|
|----------------------------------------------------------------------|

2:48
|--------------------------|
|-4-4---5-5---7-7---8-8----|
|--------------------------|
|--------------------------|

Chorus 2:50                                       X4 3:12
|---------------------------------------------------|--------------------------------------------|
|-----------------------------4-4---5-5---7-7---8-8-|4-4---5-5---7-7---8-8--9-9-9-9-9-9-9-9-9~--2|
|-2~-2-2-2-2-2-2-2-2-2-2-2-2------------------------|--------------------------------------------|
|---------------------------------------------------|--------------------------------------------|
            
Hard to play? Try these video lessons and learn fast. | Correct




comments powered by Disqus
↑ Back to top | Tablatures and chords are parodies/interpretations of the original songs. You may use it for private study, scholarship, research or language learning purposes only