>
 >
Everything That You Are 2

Everything That You Are 2 Guitar Tabs

Priestess - Everything That You Are 2 chords, tabs, tablatures, lyrics

Guitar lessons | Add/correct | Request | Top 50 tabs Artists:  A B C D E F G H I J K L M N O P Q R S T U V W X Y Z 0-9

Everything That You Are 2 Guitar Tabs – Priestess

CD, Sheet music, Poster

Do you like Everything That You Are 2? Share with your friends now
Bass TabsBass Tabs v2TabsTabs v2Tabs v3
-------------------------------------------------------------------------------       
                     Everything That You Are - Priestess
-------------------------------------------------------------------------------

Tuning: down 1 / 2 step

   INTRO X4
D#|---------------------------------------------------------------------------|
A#|---------------------------------------------------------------------------|
F#|-------------------------10/12---------10\8--8-8-8-8----10-----------------|
C#|-10--10-10-10-10-10-10---10/12---10\8--10\8--8-8-8-8----10-----------------|
G#|-10--10-10-10-10-10-10---8-/10---10\8--8-\6--6-6-6-6----8------------------|
D#|-8---8--8--8--8--8--8------------8-\6--------------------------------------|

D#|---------------------------------------------------------------------------|
A#|---------------------------------------------------------------------------|
F#|---------------------------------------------------------------------------|
C#|---------------------------------------------------------8--10-------------|
G#|-----------------------------------------6------6--------8--10-------------|
D#|-0--6--8-8---------0--6--8------0--6--8-----8------8--6--6--8--------------|

   VERSE X4
D#|---------------------------------------------------------------------------|
A#|---------------------------------------------------------------------------|
F#|-------------------------10/12---------10\8--8-8-8-8----10-----------------|
C#|-10--10-10-10-10-10-10---10/12---10\8--10\8--8-8-8-8----10-----------------|
G#|-10--10-10-10-10-10-10---8-/10---10\8--8-\6--6-6-6-6----8------------------|
D#|-8---8--8--8--8--8--8------------8-\6--------------------------------------|


D#|---------------------------------------------------------------------------|
A#|---------------------------------------------------------------------------|
F#|---------------------------------------------------------------------------|
C#|-5-5--6-6--8-8--9-9----10-10-10-10-10-10-10-10-10--------------------------|
G#|-5-5--6-6--8-8--9-9----10-10-10-10-10-10-10-10-10--------------------------|
D#|-3-3--4-4--6-6--7-7----8--8--8--8--8--8--8--8--8---------------------------|

D#|---------------------------------------------------------------------------|
A#|---------------------------------------------------------------------------|
F#|-------------------------------------------------------------------------8-|
C#|-5-5--6-6--8-8--9-9--10-10-10-10-10-10-10-10-10-10-10-10-10-10-10-10-10--8-|
G#|-5-5--6-6--8-8--9-9--10-10-10-10-10-10-10-10-10-10-10-10-10-10-10-10-10--6-|
D#|-3-3--4-4--6-6--7-7--8--8--8--8--8--8--8--8--8--8--8--8--8--8--8--8--8-----|

VERSE X4
D#|---------------------------------------------------------------------------|
A#|---------------------------------------------------------------------------|
F#|-------------------------10/12---------10\8--8-8-8-8----10-----------------|
C#|-10--10-10-10-10-10-10---10/12---10\8--10\8--8-8-8-8----10-----------------|
G#|-10--10-10-10-10-10-10---8-/10---10\8--8-\6--6-6-6-6----8------------------|
D#|-8---8--8--8--8--8--8------------8-\6--------------------------------------|

D#|---------------------------------------------------------------------------|
A#|---------------------------------------------------------------------------|
F#|---------------------------------------------------------------------------|
C#|-5-5--6-6--8-8--9-9----10-10-10-10-10-10-10-10-10---5-5--6-6--8-8--9-9-----|
G#|-5-5--6-6--8-8--9-9----10-10-10-10-10-10-10-10-10---5-5--6-6--8-8--9-9-----|
D#|-3-3--4-4--6-6--7-7----8--8--8--8--8--8--8--8--8----3-3--4-4--6-6--7-7-----|



   X4
D#|---------------------------------------------------------------------------|
A#|---------------------------------------------------------------------------|
F#|--------------------------------10--8--8-8-8-8-8-8-8-8-8-8-----------------|
C#|-10-10-10-10-10-10-10-10-10-10--10--8--8-8-8-8-8-8-8-8-8-8-----------------|
G#|-10-10-10-10-10-10-10-10-10-10--8---6--6-6-6-6-6-6-6-6-6-6-6-7-8-----------|
D#|-8--8--8--8--8--8--8--8--8--8----------------------------------------------|

D#|----------------------------------|
A#|----------------------------------|
F#|----------------------------------|
C#|-5-5--6-6--8-8--9-9---------------|
G#|-5-5--6-6--8-8--9-9---------------|
D#|-3-3--4-4--6-6--7-7---------------|

D#|---------------------------------------------------------------------------|
A#|---------------------------------------------------------------------------|
F#|--------------------10/12--------10\8--8-8-8-8-----------------------------|
C#|-10-10-10-10-10-10--10/12--10\8--10\8--8-8-8-8-8p10p8p10p8p10p8p10p8p10----|
G#|-10-10-10-10-10-10--8-/10--10\8--8-\6--6-6-6-6-----------------------------|
D#|-8--8--8--8--8--8----------8-\6--------------------------------------------|

VERSE X4
D#|---------------------------------------------------------------------------|
A#|---------------------------------------------------------------------------|
F#|-------------------------10/12---------10\8--8-8-8-8----10-----------------|
C#|-10--10-10-10-10-10-10---10/12---10\8--10\8--8-8-8-8----10-----------------|
G#|-10--10-10-10-10-10-10---8-/10---10\8--8-\6--6-6-6-6----8------------------|
D#|-8---8--8--8--8--8--8------------8-\6--------------------------------------|

    X4
D#|---------------------------------------------------------------------------|
A#|---------------------------------------------------------------------------|
F#|---------------------------------------------------------------------------|
C#|-5-5--6-6--8-8--9-9----10-10-10-10-10-10-10-10-10--------------------------|
G#|-5-5--6-6--8-8--9-9----10-10-10-10-10-10-10-10-10--------------------------|
D#|-3-3--4-4--6-6--7-7----8--8--8--8--8--8--8--8--8---------------------------|

D#|---------------------------------------------------------------------------|
A#|---------------------------------------------------------------------------|
F#|---------------------------------------------------------------------------|
C#|-5-5--6-6--8-8--9-9---5-5--6-6--8-8--9-9---10------------------------------|
G#|-5-5--6-6--8-8--9-9---5-5--6-6--8-8--9-9---10------------------------------|
D#|-3-3--4-4--6-6--7-7---3-3--4-4--6-6--7-7---8-------------------------------|





Comments


Popular Priestess tabs & chords
Performance Bass Tabs
Shakes Bass Tabs
Two Kids Bass Tabs
Lay Down Chords
Blood Tabs
I Am The Night, Colour Me Black Tabs
No Real Pain Tabs
Run Home Tabs
Time Will Cut You Down Tabs
Lay Down Ukulele


Song lyrics



↑ Back to top | Tablatures and chords are parodies/interpretations of the original songs. You may use it for private study, scholarship, research or language learning purposes only
© 2014 AZChords.com Contact us | Privacy policy | DMCA | Add/correct tabs | Request tabs | Top 50 tabs