» » »

Poison The Well, Torn Tabs (ver.2)

Artists:  A B C D E F G H I J K L M N O P Q R S T U V W X Y Z # 

Torn Tabs (ver.2)

Poison The Well Tabs
Rating:
0/5 (0 votes)
Hard to play? Try these video lessons and learn fast.
                drop d tuning

Intro (Guitar 1)
E|------------------------------------------------------------------|
B|------------------------------------------------------------------|
G|-----3---3-------4-----3--------------3---3-------4-----3---------|
D|---1---1---1---1---1-----1---4--------------------------------4---|
A|-2-----------2-------2-----2---2----6---6---6---6---6-----6-------|
D|----------------------------------6-----------6-------6-----6-----|


E|--------------|
B|--------------|
G|--------------|
D|-4---4/6---1--|
A|--------------|
D|--------------|


E|-----------------------------------|
B|-----------------------------------|
G|-4-4---4-4---4-4-------------------|
D|-4-4---4-4---4-4-6-6--6-6--6-6-----|
A|-2-2---2-2---2-2-6-6--6-6--6-6-----|
D|-----------------6-6--6-6--6-6-----|

Part 3 (Both Guitars)
E|---------------------------------------------------------------------|
B|---------------------------------------------------------------------|
G|-4-4-4-4-4-4--4-4-4-4-4-4--4-4-4-4--4-4-4-4-4-4--4-4-4-4-4-4--4-4-4-4|
D|-4-4-4-4-4-4--4-4-4-4-4-4--4-4-4-4--4-4-4-4-4-4--4-4-4-4-4-4--4-4-4-4-
A|-2-2-2-2-2-2--2-2-2-2-2-2--2-2-2-2--2-2-2-2-2-2--2-2-2-2-2-2--2-2-2-2|
D|---------------------------------------------------------------------|

E|-----------------------------|
B|-----------------------------|
G|-----------------------------|
D|-1--1-1--1-------------------|
A|-1--1-1--1----1-2-4-2-1------|
D|-1--1-1--1--1----------------|

Part 4 (Both Guitars)
E|-------------------------------|
B|-------------------------------|
G|-------------------------------|
D|-1-1--1-1--1-1--1-1------3-4---|
A|-1-1--1-1--1-1--1-1--2-1-------|
D|-1-1--1-1--1-1--1-1------------|
    pm  pm   pm    pm

E|----------------|
B|----------------|
G|----------------|
D|---1--4-----3--4|
A|-2-------4------|
D|----------------|


 part 2
 part 3


E|---------------------------------|
B|---------------------------------|
G|---------------------------------|
D|-1-1-1-1---1-1-1--1-1-1-1--1-----|
A|-1-1-1-1---1-1-1--1-1-1-1--1-----|
D|-1-1-1-1---1-1-1--1-1-1-1--1-----|


E|----------------|
B|----------------|
G|----------------|
D|---1--4-----3--4|
A|-2-------4------|
D|----------------|


E|-------------------------------|
B|--------------------------------
G|-------------------------------|
D|-1-1-1-1---1-1-1--1-1-1-1------|
A|-1-1-1-1---1-1-1--1-1-1-1------|
D|-1-1-1-1---1-1-1--1-1-1-1------|
            

comments powered by Disqus
↑ Back to top | Poison The Well Tabs for Torn. Lyrics for acoustic guitar and electric guitar. Tablatures and chords are parodies/interpretations of the original songs. You may use it for private study, scholarship, research or language learning purposes only