» » »

Poison The Well, Torn Tabs (ver.3)

Artists:  A B C D E F G H I J K L M N O P Q R S T U V W X Y Z # 

Torn Tabs (ver.3)

Poison The Well Tabs
 Rating:
4/5 (4 votes)
Torn lessons Tabs too difficult? Try these video lessons and learn fast
                TUNING: DADGBe

if you know poison the well guitar the low note chords are palm muted to make
the "chug" effect. so keep that im mind. cause i might not mark every section
as palm muted.i make mistakes im only human.

Intro Guitar 1
e|------------------------------------------------------|
B|------------------------------------------------------|
G|-----3---3-------4-----3-------------3---3------------|
D|---1---1---1---1---1-----1---4------------------------|
A|-2-----------2-------2-----2---2---6---6---6---6------|
D|---------------------------------6-----------6--------|

e|------------------|
B|------------------|
G|-4-----3----------|repeats throughout the beginning of 
D|-------------4----|song while 2nd guitar plays 
A|---6-----6-----6--|rhythum
D|-----6-----6------|


(A) 2nd Guitar Part palm muted
e|--------------------------------|
B|--------------------------------|
G|-4-4---4-4---4-4----------------|
D|-4-4---4-4---4-4-6-6--6-6--6----|
A|-2-2---2-2---2-2-6-6--6-6--6----|
D|-----------------6-6--6-6--6----|



(B) Both Guitars
e|------------------------------------------------------|
B|------------------------------------------------------|
G|-4-4-4-4-4-4--4-4-4-4-4-4--3-3-3-3--6-6-6-6-6-6-------|
D|-4-4-4-4-4-4--4-4-4-4-4-4--4-4-4-4--4-4-4-4-4-4-------|
A|-2-2-2-2-2-2--2-2-2-2-2-2--2-2-2-2--2-2-2-2-2-2-------|
D|------------------------------------------------------|

e|------------------------------------------------------|
B|------------------------------------------------------|
G|-4-4-4-4-4-4--3-3-3-3---------------------------------|
D|-4-4-4-4-4-4--4-4-4-4--1--1-1--1----------------------|
A|-2-2-2-2-2-2--2-2-2-2--1--1-1--1----1-4-2-1-----------|
D|-----------------------1--1-1--1--5-------------------|

(C) both guitars
e|------------------------------------------------------|
B|------------------------------------------------------|
G|------------------------------------------------------|
D|-1-1--1-1--1-1--1-1------3-4--------------------------|
A|-1-1--1-1--1-1--1-1--2-1------------------------------|
D|-1-1--1-1--1-1--1-1-----------------------------------|


(D)
e|------------------------------------------------------|
B|------------------------------------------------------|
G|-4-4-4-4-4-4-4-4--------------------------------------|
D|-4-4-4-4-4-4-4-4-6-6-6-6-6-6-6-6----------------------|
A|-2-2-2-2-2-2-2-2-6-6-6-6-6-6-6-6----------------------|
D|-----------------6-6-6-6-6-6-6-6----------------------|


repeat part (B)


(E) palm mute all
e|------------------------------------------------------|
B|------------------------------------------------------|
G|------------------------------------------------------|
D|-1-1-1-1---1-1-1--1-1-1-1--1--------------------------|
A|-1-1-1-1---1-1-1--1-1-1-1--1--------------------------|
D|-1-1-1-1---1-1-1--1-1-1-1--1--------------------------|


(F) palm muted
e|------------------------------------------------------|
B|------------------------------------------------------|
G|-4--4-4--4--------------------------------------------|
D|-4--4-4--4---6--6-6--6--------------------------------|
A|-2--2-2--2---6--6-6--6--------------------------------|
D|-------------6--6-6--6--------------------------------|


(G)
e|------------------------------------------------------|
B|------------------------------------------------------|
G|-8-8-8-8--8-8-8--8--8-8-8-8--4--4-4--4----------------|
D|-8-8-8-8--8-8-8--8--8-8-8-8--4--4-4--4--6--6-6--6-----|
A|-6-6-6-6--6-6-6--6--6-6-6-6--2--2-2--2--6--6-6--6-----|
D|----------------------------------------6--6-6--6-----|

(H) ending Palm muted
e|------------------------|
B|------------------------|
G|-8-8-8-8--8-8-8--8-8--8-|
D|-8-8-8-8--8-8-8--8-8--8-|
A|-6-6-6-6--6-6-6--6-6--6-|
D|------------------------|
            
Submit corrections

comments powered by Disqus
↑ Back to top | Poison The Well Tabs for Torn. Lyrics for acoustic guitar and electric guitar. Tablatures and chords are parodies/interpretations of the original songs. You may use it for private study, scholarship, research or language learning purposes only