» » »

Poison The Well, Torn Tabs (ver.1)

Artists:  A B C D E F G H I J K L M N O P Q R S T U V W X Y Z # 

Torn Tabs (ver.1)

Poison The Well Tabs
 Rating:
4/5 (4 votes)
Torn lessons Tabs too difficult? Try these video lessons and learn fast
1
                
x=palm mute
p=power-on
h=hammer-off

e|-----------------------------------------------------------------|Repeat this
B|-----0---0-------1-----0-------------0---0-------1-----0---------|and play 
G|-----------------------------------------------------------------|during the
D|---2---2---2---2---2-----2---2-----2---2---2---2---2-----2---2---|clean
A|-3-----------3-------3-----3---3-0-----------0-------0-----0---0-|beginning
E|-----------------------------------------------------------------|

Play this with above.  Then play this with above
e|----------------|-----------------------------------------------------------|
B|----------------|-----------------------------------------------------------|
G|-12--/14\--9----|----------------------------------------------------------2|
D|----------------|-22-22-2222-22-2222-22-2222-22-2222-22-2222-22-2222-22-22-2|
A|-10--/12\--7----|-33-33-3300-00-0033-33-3300-00-0033-33-3300-00-0033-33-33-0|
E|----------------|-xx-xx-xxxx-xx-xxxx-xx-xxxx-xx-xxxx-xx-xxxx-xx-xxxx-xx-xx--|

Let this ring out, strum mulitiple times, This is the VERSE
e|---------------------------------------------------------|
B|-1-1-1-0-1-1-1-3-3-1-0-1---------------------------------|
G|-0-0-0-0-0-0-0-0-0-0-0-0---------------------------------|Play this
D|-2-2-2-2-2-2-2-2-2-2-2-2-2-22-2----0---2-22-2----0-------|4 times 
A|-3-3-3-3-3-3-3-3-3-3-3-3-2-22-2---0-32-2-22-2---0-32-----|
E|-------------------------0-00-0-23-----0-00-0-23---------|
			
e|-----|---------------------------------------------------------------|
B|-----|START----------------------------------------------------------|
G|-----|-------------------------------------------------------------- |
D|-2---|----------------3p4-----------------3p4-----------------3p4----|
A|-2---|22-22-22-22-3h2-----22-22-22-22-3h2-----22-22-22-22-3h2--------|
E|-0---|00-00-00-00---------00-00-00-00---------00-00-00-00------------|
	  xx xx xx xx	    xx xx xx xx         xx xx xx xx

e|---------------------|-----|--------------|
B|------1---------STOP-|Play-|--------------|
G|------0------0-------|3----|-12--/14\--9--|Play 6 times, then play the 
D|-2222-2-44-4--4------|Times|--------------|verse 3 times, then play the 
A|-3333-3-55--5--5-----|-----|-10--/12\--7--|lines below
E|-xxxx---xx-----------|-----|--------------|

e|-----------------|---------------------------------------------|
B|-----------------|1----1-1-----3-------------------------------|
G|-----------------|0----0-0---0--0--9-9-9-9--9-9-9--9-9--9-9-9--|Play
D|-----------------|2-22-2-2-44-3--3-6-6-6-6--6-6-6--6-6--6-6-6--|4
A|-2222-222-22-222-|3-33-3-3-55------7-7-7-7--7-7-7--7-7--7-7-7--|Times
E|-0000-000-00-000-|--xx-----------------------------------------|
   xxxx xxx xx xxx

e|------------------------------------|
B|-1----1-1-----3---------------------|
G|-0----0-0---0--0--------------------|And That's it!
D|-2-22-2-2-44-3--3-------------------|
A|-3-33-3-3-55------2222-222-22-222---|
E|---xx-----xx------0000-000-00-000---|
	            xxxx xxx xx xxx
            
Submit corrections

comments powered by Disqus
↑ Back to top | Poison The Well Tabs for Torn. Lyrics for acoustic guitar and electric guitar. 1 Tablatures and chords are parodies/interpretations of the original songs. You may use it for private study, scholarship, research or language learning purposes only