» » »

Poison The Well, Torn Bass tabs (ver.1)

Artists:  A B C D E F G H I J K L M N O P Q R S T U V W X Y Z # 

Torn Bass tabs (ver.1)

Poison The Well Tabs
 Rating:
4/5 (4 votes)
Torn lessons Tabs too difficult? Try these video lessons and learn fast
                
Tuning: DGCF (D standard, full step down)

Intro:

Second guitar measure, come in

------------
-------(8~)-
----4~------
-6~-----6~--

Verse:

Not at all sure about this, but it sounds
good when I play it

----5-5----6--5-------5-5---6--5----
------------------6---------------6-
-44-----44---4--4-------------------
-------------------66-----66--6--6--

Then ring out with the 6th fret on the
first string.

Part After That (2):

-----------------------------------
-----------------------------------
-444444443333333366666666444443333-
-----------------------------------

The second part of this riff is:

---------------------
---------------------
-----------0-3-6-4-3-
-1--1--11------------

Then ring out on the 1st fret on the
first string.

Part After That:

On the second part, it is just the 
progression

------------------|-----
---------------56-|-----
-------------43---|-4-6-
-11-11-11-11------|-----

Then you go back to the Verse Riff.
I think he might play the second half of the
riff an octave down, so if you wanna do that,
go for it. It still sounds good either way.

Then play Part 2 again.

Part After That:

You can play either the 1st string or
the second string, your choice, they are
just octaves.
Second part is just progression.

-----------------|-----
-----------------|-----
-8888-888-88-888-|-4-6-
-1111-111-11-111-|-----

Ending:

Play either first or second string.

-----------------
-----------------
-8888-888-88-888-
-1111-111-11-111-

etc. Enjoy!
            
Submit corrections

comments powered by Disqus
↑ Back to top | Poison The Well Bass for Torn. Lyrics for acoustic guitar and electric guitar. Tablatures and chords are parodies/interpretations of the original songs. You may use it for private study, scholarship, research or language learning purposes only