>
 >
Botchla

Botchla Guitar Tabs

Poison The Well - Botchla chords, tabs, tablatures, lyrics

Guitar lessons | Add/correct | Request | Top 50 tabs Artists:  A B C D E F G H I J K L M N O P Q R S T U V W X Y Z 0-9

Botchla Guitar Tabs – Poison The Well

CD, Sheet music, Poster

Do you like Botchla? Share with your friends now
Bass TabsTabsTabs v2Tabs v3


xxx - palm mute
~   - let ring out
h   - hammer on
p   - pull off
/   - slide
*   - harmonic


Intro: (lightly singing) "but i adore her..."
e|---------------------------------------------------------------------------|
B|--8~----8~----8~----7~---7~------------------------------------------------|
G|--7~----7~----7~----7~---7~------------------------------------------------|
D|--5~----5~----5~----5~---5~------------------------------------------------|
A|--6~----6~----6~----5~---5~------------------------------------------------|
E|--------------------5~---5~------------------------------------------------|

Verse: (screaming) "BUT I ADORE HER..."
e|---------------------------------------------------------------------------|
B|-8-8-8-8-8-8-8-8-8-8-8-8-8-8---------7-7-7-7-7-7-7-7-7-7-7-7---------------|
G|-7-7-7-7-7-7-7-7-7-7-7-7-7-7---------7-7-7-7-7-7-7-7-7-7-7-7---------------|
D|-5-5-5-5-5-5-5-5-5-5-5-5-5-5-8-8-8-8-5-5-5-5-5-5-5-5-5-5-5-5---------------|
A|-6-6-6-6-6-6-6-6-6-6-6-6-6-6-8-8-8-8-5-5-5-5-5-5-5-5-5-5-5-5---------------|
E|-----------------------------8-8-8-8-5-5-5-5-5-5-5-5-5-5-5-5---------------|


Verse Cont'd: 
e|---------------------------------------------------------------------------|
B|-------------8-8-8-8-------------8---------7-7-7-7-7-7-7-7-----------------|
G|-------------7-7-7-7-------------7---------7-7-7-7-7-7-7-7-----------------|
D|-0-0-0-0-0-0-5-5-5-5-0-0-0-0-0-0-5-8-8-8-8-5-5-5-5-5-5-5-5-----------------|
A|-0-0-0-0-0-0-6-6-6-6-0-0-0-0-0-0-6-8-8-8-8-5-5-5-5-5-5-5-5-----------------|
E|-0-0-0-0-0-0---------0-0-0-0-0-0---8-8-8-8-5-5-5-5-5-5-5-5-----------------|


Part 2: (breakdown type part) (x2)
e|-------------------------------------|-------------------------------------|
B|-------------------------------------|----9~-------------------------------|
G|----12/11/12-15------12/11/12-14-----|----7~-------------------------------|
D|-0----------------0------------------|----7~-------------------------------|
A|-0--10/9/10--13---0--10/9/10--12-----|----7~-------------------------------|
E|-0----------------0------------------|----7~-------------------------------|
					   let ring out then go into...

Interlude: (softer part)
e|--0-0-0-0-0-0-0-0-2-2-2-2-2-2-2-2-0-0-0-0-0-0-0-0--2---2---2---------------|
B|--2-2-2-2-2-2-2-2-3-3-3-3-3-3-3-3-2-2-2-2-2-2-2-2--3---3---3---------------|
G|--2-2-2-2-1-1-1-1-0-0-0-0-0-0-0-0-2-2-2-2-1-1-1-1--0---0---0---------------|
D|--0-0-0-0-0-0-0-0-0-0-0-0-0-0-0-0-0-0-0-0-0-0-0-0--0---0---0---------------|
A|---------------------------------------------------------------------------|
E|---------------------------------------------------------------------------|

Bridge: "shape my.....body...as i feel.."
e|---------------------------------------------------------------------------|
B|---------------------------------------------------------------------------|
G|-9-9-9-9-9-9-9----6-6-6-7-7-7-9~-------------------------------------------|
D|-7-7-7-7-7-7-7----4-4-4-5-5-5-7~-------------------------------------------|
A|-7-7-7-7-7-7-7----4-4-4-5-5-5-7~-------------------------------------------|
E|-7-7-7-7-7-7-7----4-4-4-5-5-5-7~-------------------------------------------|


Bridge (cont'd):
e|---------------------------------------------------------------------------|
B|---------------8-8-8-----------------8-8-8-8-------------------------------|
G|---------------7-7-7-----------------7-7-7-7-------------------------------|
D|---------------5-5-5-----------------5-5-5-5-------------------------------|
A|-0-0-0-0-0-0-0-6-6-6--0-0-0-0-0-0-0--6-6-6-6-------------------------------|
E|-0-0-0-0-0-0-0--------0-0-0-0-0-0-0----------------------------------------|





Comments


Popular Poison The Well tabs & chords
A Wish For Things That Work Bass Tabs
Ghostchant Bass Tabs
Slice Paper Wrists 2 Bass Tabs
To Mandate Heaven Bass Tabs
Artists Rendering Of Me Tabs
Artists Rendering Of Me 1 Tabs
Ghostchant Tabs
Meeting Again For The First Time 1 Tabs
My Mirror No Longer Reflects 2 Tabs
Turn Down Elliot Tabs


Song lyrics



↑ Back to top | Tablatures and chords are parodies/interpretations of the original songs. You may use it for private study, scholarship, research or language learning purposes only
© 2014 AZChords.com Contact us | Privacy policy | DMCA | Add/correct tabs | Request tabs | Top 50 tabs