» » »

Poison The Well, Botchla Bass tabs (ver.1)

Artists:  A B C D E F G H I J K L M N O P Q R S T U V W X Y Z # 

Botchla Bass tabs (ver.1)

Poison The Well Tabs
 Rating:
4/5 (4 votes)
Botchla lessons Tabs too difficult? Try these video lessons and learn fast
1
                This song is Drop D tuning...and you mainly follow the guitar...

This song should be fairly simple for you...if you have any problems

Thank you,and enjoy! :D


Acoustic Intro: No Bass



Verse (Play 2 times)

G|-------------------------------------------------------------
D|-------------------------------------------------------------
A|-6-6-6-6-6-6-6-6-6-6-6-6-6-6---------------------------------
D|------------------------------8-8-8-8-5-5-5-5-5-5-5-5-5-5-5-5

(2 times)

G|-----------------------------------------------------------
D|-----------------------------------------------------------
A|---------------6-------------------6-----------------------
D|-0-0-0---0-0-0-------0-0-0---0-0-0----8-8-8-5-5-5-5-5-5-5-5

(2 times)
[The rest are where the guitar does the sliding.]

G|----------------------------------
D|----------------------------------
A|----------------------------------
D|-0---------------0---------------7

(Slow Guitar Part)

End of soft part:

G|--------
D|--------
A|-4-5-7--
D|--------

(2 times)Chorus-Like Part:

G|-------------------------------------
D|-------------------------------------
A|-------------------------------------
D|-7-7-7-7-7-7-7----4-4-4-5-5-5-7------


Verse (Play 2 times)

G|-------------------------------------------------------------
D|-------------------------------------------------------------
A|-6-6-6-6-6-6-6-6-6-6-6-6-6-6---------------------------------
D|------------------------------8-8-8-8-5-5-5-5-5-5-5-5-5-5-5-5

Pre-Breakdown(2 times)

G|-------------------------------
D|-------------------------------
A|-------------------------------
D|--5--5--5--5--5----------------

BREAKDOWN:

G|--------------------------------------------------------
D|--------------------------------------------------------
A|--------------------------------------------------------
D|-0-0-0-0-0-0-0---8-8-8-----0-0-0-0-0-0-0---8-8-8--------

G|------------------------------------------------------
D|------------------------------------------------------
A|------------------------------------------------------
D|-0-0-0-0-0-0-0---8-8-8-8----0-0-0-0-0-0-0---8-8-8-----

Outro:
G|----------------------------------
D|----------------------------------
A|----------------------------------
D|-0---------------0---------------7

End:

G|--------
D|--------
A|-4-5-7--
D|--------


-Jon
            
Submit corrections

comments powered by Disqus
↑ Back to top | Poison The Well Bass for Botchla. Lyrics for acoustic guitar and electric guitar. 1 Tablatures and chords are parodies/interpretations of the original songs. You may use it for private study, scholarship, research or language learning purposes only