» » »

Poison The Well, Botchla Tabs (ver.2)

Artists:  A B C D E F G H I J K L M N O P Q R S T U V W X Y Z # 

Botchla Tabs (ver.2)

Poison The Well Tabs
 Rating:
4/5 (4 votes)
Botchla lessons Tabs too difficult? Try these video lessons and learn fast
1
                Poison the Well - Botchla
the other guy had it mostly right....just had some order mixed up.  Also, PTW plays in all standard D, but since the previous tab was in drop D, i made mine too. this is really an overglorified correction, so questions or comments

Intro acoustic
e|-----------------------------|
B|--8~----8~----8~----7~---7~--|
G|--7~----7~----7~----7~---7~--|
D|--5~----5~----5~----5~---5~--|
A|--6~----6~----6~----5~---5~--|
D|--------------------5~---5~--|

Verse distorted 2x
e|---------------------------------------------------------------|
B|-8-8-8-8-8-8-8-8-8-8-8-8-8-8-----------------------------------|
G|-7-7-7-7-7-7-7-7-7-7-7-7-7-7---------7-7-7-7-7-7-7-7-7-7-7-7---|
D|-5-5-5-5-5-5-5-5-5-5-5-5-5-5-8-8-8-8-5-5-5-5-5-5-5-5-5-5-5-5---|
A|-6-6-6-6-6-6-6-6-6-6-6-6-6-6-8-8-8-8-5-5-5-5-5-5-5-5-5-5-5-5---|
D|-----------------------------8-8-8-8-5-5-5-5-5-5-5-5-5-5-5-5---|
2X
e|---------------------------------------------------------------|
B|--------------8-8-8-8--------------8---------------------------|
G|--------------7-7-7-7--------------7---------7-7-7-7-7-7-7-7---|
D|-0-0-0--0-0-0-5-5-5-5-0-0-0--0-0-0-5-8-8-8-8-5-5-5-5-5-5-5-5---|
A|-0-0-0--0-0-0-6-6-6-6-0-0-0--0-0-0-6-8-8-8-8-5-5-5-5-5-5-5-5---|
D|-0-0-0--0-0-0---------0-0-0--0-0-0---8-8-8-8-5-5-5-5-5-5-5-5---|
   (Palm Mute)          (Palm Mute)

Slidey part 2x
e|--------------------------------------|
B|--------------------------------------|
G|----12/11/12-15------12/11/12-14-----9|
D|-0----------------0------------------7|
A|-0--10/9/10--13---0--10/9/10--12-----7|
D|-0----------------0------------------7|
			let ring after 2nd time...

This is the part i'm not sure about, i'm copying previous guess
e|--0-0-0-0-0-0-0-0-2-2-2-2-2-2-2-2-0-0-0-0-0-0-0-0--2---2---2-|
B|--2-2-2-2-2-2-2-2-3-3-3-3-3-3-3-3-2-2-2-2-2-2-2-2--3---3---3-|
G|--2-2-2-2-1-1-1-1-0-0-0-0-0-0-0-0-2-2-2-2-1-1-1-1--0---0---0-|
D|--0-0-0-0-0-0-0-0-0-0-0-0-0-0-0-0-0-0-0-0-0-0-0-0--0---0---0-|
A|-------------------------------------------------------------|
D|-------------------------------------------------------------|

End of soft part
e|----------------------------|
B|----------------------------|
G|--6--7--9~------------------|
D|--4--5--7~------------------|
A|--4--5--7~------------------|
D|--4--5--7~------------------|


Chorus-y part distorted 2x
e|-------------------------------------|
B|-------------------------------------|
G|-9-9-9-9-9-9-9----6-6-6-7-7-7-9~-----|
D|-7-7-7-7-7-7-7----4-4-4-5-5-5-7~-----|
A|-7-7-7-7-7-7-7----4-4-4-5-5-5-7~-----|
E|-7-7-7-7-7-7-7----4-4-4-5-5-5-7~-----|

verse 2x
e|--------------------------------------------------------------|
B|-8-8-8-8-8-8-8-8-8-8-8-8-8-8----------------------------------|
G|-7-7-7-7-7-7-7-7-7-7-7-7-7-7---------7-7-7-7-7-7-7-7-7-7-7-7--|
D|-5-5-5-5-5-5-5-5-5-5-5-5-5-5-8-8-8-8-5-5-5-5-5-5-5-5-5-5-5-5--|
A|-6-6-6-6-6-6-6-6-6-6-6-6-6-6-8-8-8-8-5-5-5-5-5-5-5-5-5-5-5-5--|
D|-----------------------------8-8-8-8-5-5-5-5-5-5-5-5-5-5-5-5--|

pre-breakdown 2x
e|-------------------------------------------------------------------|
B|-8-------8-------8-------8-----------------------------------------|
G|-7-------7-------7-------7---------------7-7-7-7-7-7-7-7-7-7-7-7---|
D|-5-------5-------5-------5-------8-8-8-8-5-5-5-5-5-5-5-5-5-5-5-5---|
A|-6-0-0---6-0-0---6-0-0---6-0-0---8-8-8-8-5-5-5-5-5-5-5-5-5-5-5-5---|
D|---0-0-----0-0-----0-0-----0-0---8-8-8-8-5-5-5-5-5-5-5-5-5-5-5-5---|
     (PM)    (PM)    (PM)    (PM)


breakdown 1x
e|-----------------------------------------------------------------|
B|-----------------------------------------------------------------|
G|-2-2-2-2-2-2-2-------------2-2-2-2-2-2-2-------------------------|
D|-0-0-0-0-0-0-0---8-8-8-----0-0-0-0-0-0-0---8-8-8-----------------|
A|-0-0-0-0-0-0-0---8-8-8-----0-0-0-0-0-0-0---8-8-8-----------------|
E|-0-0-0-0-0-0-0---8-8-8-----0-0-0-0-0-0-0---8-8-8-----------------|

e|------------------------------------------------------------------|
B|------------------------------------------------------------------|
G|------------------------------------------------------------------|
D|-0-0-0-0-0-0-0---8-8-8-8----0-0-0-0-0-0-0---8-8-8-----------------|
A|-0-0-0-0-0-0-0---8-8-8-8----0-0-0-0-0-0-0---8-8-8-----------------|
E|-0-0-0-0-0-0-0---8-8-8-8----0-0-0-0-0-0-0---8-8-8-----------------|
   -(palm mute)-              -(palm mute)-


ending - distorted 2x
e|-------------------------------------------------------|
B|-------------------------------------------------------|
G|-10/-11/-10/-11/-10/-8/-7------------------------------|
D|-------------------------------------------------------|
A|-8-/-9/--8-/-9-/-8-/-6/-5------------------------------|
D|-------------------------------------------------------|


e|----------------------------|
B|----------------------------|
G|--6--7--9~------------------|
D|--4--5--7~------------------|
A|--4--5--7~------------------|
D|--4--5--7~------------------|
let ring


Again, this isn't all original work.  I just took his ideas and smoothed them out a bit.

enjoy the tab.


rock
ANDY
            
Submit corrections

comments powered by Disqus
↑ Back to top | Poison The Well Tabs for Botchla. Lyrics for acoustic guitar and electric guitar. 1 Tablatures and chords are parodies/interpretations of the original songs. You may use it for private study, scholarship, research or language learning purposes only