» » »

Poison The Well, Botchla Tabs (ver.3)

Artists:  A B C D E F G H I J K L M N O P Q R S T U V W X Y Z # 

Botchla Tabs (ver.3)

Poison The Well Tabs
 Rating:
4/5 (4 votes)
Botchla lessons Tabs too difficult? Try these video lessons and learn fast
                Poison The Well
Botchla

tuning c G C F A D

Intro:( clean )
|---|   |---|
|-8-| x3|-7-| x2
|-7-|   |-7-|
|-5-|   |-5-|
|-6-|   |-5-|
|---|   |-5-|

Both guitars:
|----------------------------------|
|-888888888888----8888888888887777-| x2
|-777777777777----7777777777777777-|
|-55555555555588885555555555555555-|
|-66666666666688885555555555555555-|
|-------------88885555555555555555-|

Both guitars:
|-----------------------------------------------|
|----------8888----------88----8888888888887777-| x2
|----------7777----------77----7777777777777777-|
|-000--000-5555-000--000-5588885555555555555555-|
|-000--000-6666-000--000-6688885555555555555555-|
|-000--000------000--000---88885555555555555555-|
  ...  ...      ...  ...

2nd guitar:
|-----------------------|
|-----------------------| x2
|---12111215---12111214-|
|-0--x-x-x-x-0--x-x-x-x-|
|-0-10-91013-0-10-91012-|
|-0----------0----------|

2nd guitar:
|---|
|---|
|-9-|
|-7-|
|-7-|
|-7-|

1st guitar:( clean )
|-0000000--0--2-2222-2-|
|-2222222--2--3-3333-3-|
|-2222221--1--0-0000-0-|
|-0000000--0--0-0000-0-|
|----------------------|
|----------------------|

1st guitar:
|-0000000-00-0--2--2--2-|
|-2222222-22-2--3--3--3-|
|-2222221-11-1--0--0--0-|
|-0000000-00-0--0--0--0-|
|-----------------------|

2nd guitar:
|-----------------------|
|-----------------------|
|---------------9--9--9-|
|---------------7--7--7-|
|---------------7--7--7-|
|---------------7--7--7-|

Both guitars:
|-------------------------------|
|-------------------------------| x4
|-9999999999--9--666777999-99-9-|
|-7777777777--7--444555777-77-7-|
|-7777777777--7--444555777-77-7-|
|-7777777777--7--444555777-77-7-|

Both guitars:
|----------------------------------|
|-888888888888----8888888888887777-| x2
|-777777777777----7777777777777777-|
|-55555555555588885555555555555555-|
|-66666666666688885555555555555555-|
|-------------88885555555555555555-|

Both guitars:
|----------------------------------------------|
|-8-----8-----8-----8-----8888-----------------|
|-7-----7-----7-----7-----7777-----------------|
|-5-0-0-5-0-0-5-0-0-5-0-0-55558888888888888888-|
|-6-0-0-6-0-0-6-0-0-6-0-0-66668888888888888888-|
|---0-0---0-0---0-0---0-0-----8888888888888888-|
    . .   . .   . .   . . 

Both guitars:
|-------------------------------|
|-8-----8-----8-----8-----8888--|
|-7-----7-----7-----7-----77773-|
|-5-0-0-5-0-0-5-0-0-5-0-0-55553-|
|-6-0-0-6-0-0-6-0-0-6-0-0-66661-|
|---0-0---0-0---0-0---0-0-------|
    . .   . .   . .   . . 

|-----|
|-----|
|-----|
|-020-|
|-020-|
|-020-|
  . 

|------------------|
|------------------| x4
|-------------3333-|
|-22-2-2-2-2-23333-|
|-00-0-0-0-0-01111-|
|-00-0-0-0-0-0-----|
  .. . . . . .

|-----------------------------------|
|-----------------------------------| x4
|---------------------------3-3-3-3-|
|-2222-222-2-2-2-2-2222-222-3-3-3-3-|
|-0000-000-0-0-0-0-0000-000-1-1-1-1-|
|-0000-000-0-0-0-0-0000-000---------|
  .... ... . . . . .... ...

1st guitar:
|-------------------|
|-------------------| x3
|-141514151415-9--9-|
|--x-x-x-x-x-x-x--x-|
|-121312131213-7--7-|
|-------------------|

Both guitars:
|-------|
|-------|
|-6-7-9-|
|-4-5-7-|
|-4-5-7-|
|-4-5-7-|
            
Submit corrections

comments powered by Disqus
↑ Back to top | Poison The Well Tabs for Botchla. Lyrics for acoustic guitar and electric guitar. Tablatures and chords are parodies/interpretations of the original songs. You may use it for private study, scholarship, research or language learning purposes only