» » »

P.O.D., Tribal Tabs (ver.3)

Artists:  A B C D E F G H I J K L M N O P Q R S T U V W X Y Z # 

Tribal Tabs (ver.3)

P.O.D. Tabs
 Rating:
4/5 (4 votes)
Tribal lessons Tabs too difficult? Try these video lessons and learn fast
1
                Drop D-tuning

Intro:
g----------------------|
d-5--0--5--0--2~~~~~~~-|
a-5--0--5--0--2~~~~~~~-|
d-5--0--5--0--2--------|

This part goes 4 times

Chorus:
g----------------------------------------------------|
d----------------------------------------------------|
a--222222222222-33-00-10101010101010101010-555555-33-|
e--222222222222-33-00-10101010101010101010-555555-33-|

Verse:
e-----------------------------|
b------12---12-12-12-12/13-10-|
g-----------------------------|
d-----------------------------|
a----7------------------------|
e-2---------------------------|

Interlude(part 1):
g---------------------|
d---------------------|
a-2-0-2/3-5--0-0--0-0-|
e-2-0-2/3-5--0-0--0-0-|
pm. . . . .  . .  . .

Interlude(part 2):
g-------------|             |----------------------|
d-2--3--5--0--|4 times, then|-2--3--5555--0--2~~~~-|
a-2--3--5--0--|             |-2--3--5555--0--2~~~~-|
e-2--3--5--0--|             |-2--3--5555--0--2~~~~-|

and chorus again.

That's all. I think I haven't forgotten any riffs, so you if you find out something, correct me.
            
Submit corrections

comments powered by Disqus
↑ Back to top | P.O.D. Tabs for Tribal. Lyrics for acoustic guitar and electric guitar. 1 Tablatures and chords are parodies/interpretations of the original songs. You may use it for private study, scholarship, research or language learning purposes only