>
 >
Thinking About Forever 1

Thinking About Forever 1 Guitar Tabs

P.O.D. - Thinking About Forever 1 chords, tabs, tablatures, lyrics

Guitar lessons | Add/correct | Request | Top 50 tabs Artists:  A B C D E F G H I J K L M N O P Q R S T U V W X Y Z 0-9

Thinking About Forever 1 Guitar Tabs – P.O.D.

CD, Sheet music, Poster

Do you like Thinking About Forever 1? Share with your friends now
Bass TabsChordsTabsTabs v2Ukulele
Thinking About Forever
Tuning: CGCFAD – Tune it a whole step down on every string, and then just
drop d (or in this case c) it.

Intro: (I didn’t put how many times you strum the 3 chords at the beginning)(and // just means
 slide)

D|--2---2---3-----3h5-5-5//7-7-7//9-9-9//10-10-10-|--2---2----2---2----
A|--2---2---3-----0-----0------0------0---------0-|--2---2----2---2----
F|--4---4---4-------------------------------------|--4---4----4---4----
C|--4---4---5-------------------------------------|--4-4-4----4-4-4----
G|--2---0---x-------------------------------------|--2---4~~--0---4~~--
C|----------5-------------------------------------|--------------------

D|--3--3---------
A|--4--4---------
F|--4--4---------
C|--5--4---------
G|--x--5---------
C|--5-----5///---

Verse: x2
D|---------------------------------------------------------------------
A|---------------------------------------------------------------------
F|-----4-----4--------------------------------4-----4-----------------0
C|---4-----4---4p2p0---------0-----0--------4-----4---4p2p0---------0--
G|-2-----0----------4p2p0--0---0-0---0-1--2-----0----------4p2p0--0----
C|-----------------------5--------------------------------------5------

Chorus:
play the first part of the intro (up to the line) then play the chords
again, and then slide down on the 5th fret of the low C string.

Verse
Chorus: same as before but play the riff* after the chords both times.

Solo:
D|---------------------------------------------------------------------
A|-------------------7-5---5-7-7-8-8-8-10—10p8p7h8--8p7p5h7--5---5-----
F|-------------4-6-7-----7-------------------------------------7-------
C|-4-5---4h5h7---------------------------------------------------------
G|---------------------------------------------------------------------
C|---------------------------------------------------------------------

D|--------------------------------------------------------------
A|----------------------------------------------5h7-7h8-7--8-7--
F|-7-6-7-6-7-6-7//9-7h9p7p6--9-7h9p7p6--6h7-7h9-----------------
C|--------------------------------------------------------------
G|--------------------------------------------------------------
C|--------------------------------------------------------------


D|---------------------------------------------------------------------
A|-----------5-7--5----------------------------------------------------
F|-----4-6-7--------7--6-4-6-6b7b6--4-4-6-6b7b6------------------------
C|-5-7-----------------------------------------------------------------
G|---------------------------------------------------------------------
C|---------------------------------------------------------------------

Chorus till end

*The other riff that they sometimes use after the chords in the chorus is:
D|--3h5-5-5p3-3-3h5-5-5p3-3-3---
A|--0-----0-----0-----0-----0---
F|------------------------------
C|------------------------------
G|------------------------------
C|------------------------------




SOLO

!!Tune all strings down one step!!
D - G - C - F - A - D

d------------------------------------------------------------------
a------------------------------------------------------------------
f-------------------------11-9----9--11-11/12-12-12h13--12h13h12-12
C----------------9h11h12-------12----------------------------------
G--9-10--9h10h12---------------------------------------------------
D------------------------------------------------------------------

d---------------------------------------------------------------------
a---------------------------------------------------------------------
f--11-----------------------------------------------------------------
C------14-12-14-12--11h12-11h12--12/13-13--12h13p12-11--13-12h13p12-11
G---------------------------------------------------------------------
D---------------------------------------------------------------------

d--------------------------------------------------------------------
a--------------------------------------------------------------------
f-------------------------------------------------------11-9---------
C--11-11/12-12/14-14/15-15-16-15h16p16----------9-11-12------12------
G---------------------------------------9-10-12----------------------
D--------------------------------------------------------------------

d---------------------------------------
a---------------------------------------
f---------------------------------------
C--11-9h11--11h12p11--9-9h11--11h12p11--
G---------------------------------------
D---------------------------------------





Comments


Popular P.O.D. tabs & chords
Ridiculous 1 Bass Tabs
Tell Me Why 1 Chords
Image 1 Tabs
Know Me 1 Tabs
Mark My Words Intro Tabs
Selah Tabs
Set Your Eyes To Zion Tabs
Spell Correctly Tabs
Truly Amazing Intro Tabs
Youth Of The Nation 5 Tabs


Song lyrics



↑ Back to top | Tablatures and chords are parodies/interpretations of the original songs. You may use it for private study, scholarship, research or language learning purposes only
© 2014 AZChords.com Contact us | Privacy policy | DMCA | Add/correct tabs | Request tabs | Top 50 tabs