» » »

P.O.D., Tell Me Why Tabs (ver.1)

Artists:  A B C D E F G H I J K L M N O P Q R S T U V W X Y Z # 

Tell Me Why Tabs (ver.1)

P.O.D. Tabs
Rating:
0/5 (0 votes)
Tell Me Why lessons Tabs too difficult? Try these video lessons and learn fast
                Tuning: Standard


**Capo 3rd**


I saw a video of this live and they actually play it in standard P.O.D.
tuning, which is drop C (drop D but the whole guitar down one step).
However, with a capo on 3rd in standard tuning it sounds pretty much
identical.


Intro:

First time round it's just one guitar, then both guitars play the intro again.

    C(Eb)                                Am(Cm)
e|--0-----0--0--0--0--0-----0--0--0--0|--0-----0--0--0--0--0-----0--0--0--0|
B|--1-----1--1--1--1--1-----1--1--1--1|--1-----1--1--1--1--1-----1--1--1--1|
G|--0-----0--0--0--0--0-----0--0--0--0|--2-----2--2--2--2--2-----2--2--2--2|
D|--2-----2--2--2--2--2-----2--2--2--2|--2-----2--2--2--2--2-----2--2--2--2|
A|--3-----3--3--3--3--3-----3--3--3--3|--0-----0--0--0--0--0-----0--0--0--0|
E|------------------------------------|------------------------------------|

    Em(Gm)                               G(Bb)
e|--0-----0--0--0--0--0-----0--0--0--0|--3-----3--3--3--3--3-----3--3--3--3|
B|--0-----0--0--0--0--0-----0--0--0--0|--0-----0--0--0--0--0-----0--0--0--0|
G|--0-----0--0--0--0--0-----0--0--0--0|--0-----0--0--0--0--0-----0--0--0--0|
D|--2-----2--2--2--2--2-----2--2--2--2|--0-----0--0--0--0--0-----0--0--0--0|
A|--2-----2--2--2--2--2-----2--2--2--2|--2-----2--2--2--2--2-----2--2--2--2|
E|--0-----0--0--0--0--0-----0--0--0--0|--3-----3--3--3--3--3-----3--3--3--3|


Verse:

First half of each verse it's just one guitar playing the chords.  During
the second half of each verse the second guitar comes in.

    Am(Cm)
e|--0-----0--0--0--0--0-----0--0--0--0|--3-----3--3--3--0--0-----0--0--0--0|
B|--1-----1--1--1--1--1-----1--1--1--1|--1-----1--1--1--1--1-----1--1--1--1|
G|--2-----2--2--2--2--2-----2--2--2--2|--2-----2--2--2--2--2-----2--2--2--2|
D|--2-----2--2--2--2--2-----2--2--2--2|--2-----2--2--2--2--2-----2--2--2--2|
A|--0-----0--0--0--0--0-----0--0--0--0|--0-----0--0--0--0--0-----0--0--0--0|
E|------------------------------------|------------------------------------|
 |                                                                         |
e|------------------------------------|------------------------------------|
B|--------------1-----------------1---|--------------1-----------------1---|
G|--2-----2-----------2-----2---------|--2-----2-----------2-----2---------|
D|------------------------------------|------------------------------------|
A|------------------------------------|------------------------------------|
E|------------------------------------|------------------------------------|

    Em(Gm)
e|--0-----0--0--0--0--0-----0--0--0--0|--0--0--0--0--0--0--0--0--0--0--0--0|
B|--0-----0--0--0--0--0-----0--0--0--0|--0--0--0--0--0--0--0--0--0--0--0--0|
G|--0-----0--0--0--0--0-----0--0--0--0|--0--0--0--0--0--0--0--0--0--0--0--0|
D|--2-----2--2--2--2--2-----2--2--2--2|--2--2--2--2--2--2--2--2--2--2--2--2|
A|--2-----2--2--2--2--2-----2--2--2--2|--2--2--2--2--2--2--2--2--2--2--2--2|
E|--0-----0--0--0--0--0-----0--0--0--0|--0--0--0--0--0--0--0--0--0--0--0--0|
 |                                                                         |
e|------------------------------------|------------------------------------|
B|--------------3-----------------3---|------------------------------------|
G|--4-----4-----------4-----4---------|--------------4-----------------4---|
D|------------------------------------|--2-----2-----------2-----2---------|
A|------------------------------------|------------------------------------|
E|------------------------------------|------------------------------------|


Chorus:

Same as Intro with both guitars playing.


Bridge:

    C(Eb)                                Am(Cm)
e|------------------------------------|------------------------------------|
B|--------------------1---------------|--------------------1---------------|
G|--------------0-----------0---------|--------------2-----------2---------|
D|--------2-----------------------2---|--------2-----------------------2---|
A|--3---------------------------------|--0---------------------------------|
E|------------------------------------|------------------------------------|
 |                                                                         |
e|--------------------7-----5---------|--------------------7-----5---------|
B|--------5-----------------------5---|--------5-----------------------5---|
G|--5-----------5---------------------|--5-----------5---------------------|
D|------------------------------------|------------------------------------|
A|------------------------------------|------------------------------------|
E|------------------------------------|------------------------------------|

    Em(Gm)                               G(Bb)
e|------------------------------------|------------------------------------|
B|--------------------0---------------|--------------------0---------------|
G|--------------------------0---------|--------------------------0---------|
D|--------------2-----------------2---|--------------0-----------------0---|
A|--------2---------------------------|--------2---------------------------|
E|--0---------------------------------|--3---------------------------------|
 |                                                                         |
e|--------------------5-----3---------|--------------------5-----3---------|
B|--------3-----------------------3---|--------3-----------------------3---|
G|--4-----------4---------------------|--4-----------4---------------------|
D|------------------------------------|------------------------------------|
A|------------------------------------|------------------------------------|
E|------------------------------------|------------------------------------|

Enjoy!
            

comments powered by Disqus
↑ Back to top | P.O.D. Tabs for Tell Me Why. Lyrics for acoustic guitar and electric guitar. Tablatures and chords are parodies/interpretations of the original songs. You may use it for private study, scholarship, research or language learning purposes only