>
 >
Sounds Like War 2

Sounds Like War 2 Guitar Tabs

P.O.D. - Sounds Like War 2 chords, tabs, tablatures, lyrics

Guitar lessons | Add/correct | Request | Top 50 tabs Artists:  A B C D E F G H I J K L M N O P Q R S T U V W X Y Z 0-9

Sounds Like War 2 Guitar Tabs – P.O.D.

CD, Sheet music, Poster

Do you like Sounds Like War 2? Share with your friends now
TabsTabs v2Tabs v3
----------------------------------------------------------------------------
                             SOUNDS LIKE WAR - P.O.D.
----------------------------------------------------------------------------

Tuning: C G C F A d

Intro

d|---------------------------------------------------|
A|---------------------------------------------------|
F|---------------------------------------------------|
C|---------------------------------------------------|
G|---------------------------1-0--0--0--0--0--0-1h3--|
C|-1-0--0--0--0--0--0-1h3----1-0--0--0--0--0--0-1h3--|
   . .  .  .  .  .  .        . .  .  .  .  .  .

Verse 1

d|---------------------------|
A|---------------------------|
F|---------------------------|  X3
C|---------------------------|
G|-1-0--0--0--0--0--0--1h3---|
C|-1-0--0--0--0--0--0--1h3---|
   . .  .  .  .  .  .


d|---------------------------|   X1
A|---------------------------|
F|---------------------------|  Make sure when you hit the natural harmonic
C|---------------------------|  to play it on the second half of the 3rd
G|-1-0--0--0--0--0--0--0-----|  fret, after the dot but Before the metal of
C|-1-0--0--0--0--0--0--0-[3]-|  the fret itself. If you even slightly have
   . .  .  .  .  .  .  . N.H.   your finger overe the metal it will produce
                                a different harmonic  sound. Same goes for  if it's before the dot


d|---------------------------|
A|---------------------------|
F|---------------------------|  X4
C|---------------------------|
G|-1-0--0--0--0--0--0--1h3---|
C|-1-0--0--0--0--0--0--1h3---|
   . .  .  .  .  .  .

Chorus 1

d|--------------------|-------------------------------------|
A|--------------------|-------------------------------------|
F|-12----5----7---10--|--12----5--------------3-3--3--3-3-3-| X1
C|-12----5----7---10--|--12----5--------------3-3--3--3-3-3-|
G|-10----3----5----8--|--10----3-----1p0-0-0--1-1--1--1-1-1-|
C|-10----3----5----8--|--10----3-----1p0-0-0----------------|
   sounds...  peace..    sounds..
                                     ^ play this part exactly

d|-------------------------|         It's not difficult to figure out the
A|-------------------------|         strumming pattern for the chorus. It
F|-12---5----7----10-------|  X2     might also be a good idea to throw in
C|-12---5----7----10-------|         some slides.
G|-10---3----5----8--------|
C|-10---3----5----8--------|


Verse 2

d|---------------------------|
A|---------------------------|
F|---------------------------|  X1 then silence for one measure.
C|---------------------------|
G|-1-0--0--0--0--0--0--1h3---|
C|-1-0--0--0--0--0--0--1h3---|

then silence for one measure

d|---------------------------|
A|---------------------------|
F|---------------------------|  X1
C|---------------------------|
G|-1-0--0--0--0--0--0--1h3---|
C|-1-0--0--0--0--0--0--1h3---|

d|---------------------------|
A|---------------------------|
F|---------------------------|  X1
C|---------------------------|
G|---------------------------|
C|-[3]*---[3]*---[3]*---[3]*-|
    N.H.  N.H.  N.H.  N.H.

d|---------------------------|
A|---------------------------|
F|---------------------------|  X4
C|---------------------------|
G|-1-0--0--0--0--0--0--1h3---|
C|-1-0--0--0--0--0--0--1h3---|


Chorus 2
 Exact same as Chorus 1

Bridge

d|---------------------------------------------------|
A|---------------------------------------------------|
F|---------------------------------------------------|  X1
C|---------------------------------------------------|
G|---------------------------1-0--0--0--0--0--0-1h3--|
C|-1-0--0--0--0--0--0-1h3----1-0--0--0--0--0--0-1h3--|
   . .  .  .  .  .  .        . .  .  .  .  .  .

d|---------------------------|
A|---------------------------|
F|---------------------------|  X1
C|---------------------------|
G|-1-0--0--0--0--0--0--1h3---|
C|-1-0--0--0--0--0--0--1h3---|
   . .  .  .  .  .  .

d|-----------------------|
A|-----------------------|
F|-----------------------|  X1
C|-----------------------|
G|-----------------------|
C|-[3]*---[3]*---[3]*----|
    N.H.  N.H.  N.H.

To be honest, I was never to good at pinpointing different effects, but this is 
generally what the guitar plays:


         Lead
d|---------------------------|
A|-10/16----10/15------------|
F|--x/x------x/x-------------|  X4
C|--7/13-----7/12------------|
G|---------------------------|
C|---------------------------|



Heres the ryhthm behind it
d|------------------------------------------------ |
A|------------------------------------------------ |
F|---------------------------|  X3           ----- |
C|---------------------------|                  -- |
G|-1-0--0--0--0--0--0--1h3---|                  -- |
C|-1-0--0--0--0--0--0--1h3---|                  -- |
                                                 |
                                                 | X2
d|-----------------------|                      -- |
A|-----------------------|                      -- |
F|-----------------------|  X1                  -- |
C|-----------------------|                      -- |
G|-----------------------|                   ----- |
C|-[3]*---[3]*---[3]*----------------------------- |
    N.H.  N.H.  N.H.

Piano part

While the piano is playing just play the 4 chords in the chorus
and use clean volume swells.


Chorus 3

d|-------------------------|
A|-------------------------|
F|-12---5----7----10-------|  X6
C|-12---5----7----10-------|
G|-10---3----5----8--------|
C|-10---3----5----8--------|


Outro

d|---------------20----------------------18----|
A|-20----------------------22------------------|
F|-------17--19----------------------17--------|
C|-------------------------------19------------|
G|---------------------------------------------|
C|---------------------------------------------|

^keep playing this till it fades out. (use chorus chords as ryhthm)

note : when you play 19th fret on the d string, it could possibly be replaced by the 
20th fret but i couldnt really distinguish which one it actually was. see what sounds best.



Thats it for my second tab. I think its pretty accurate. Email me or comment for suggestions.


************************************

| /   slide up
| \   slide down
| h   hammer-on
| p   pull-off
| ~   vibrato
| +   harmonic
| .   Mute note
| b   Bend
| pb  Pre-bend
| br  Bend release
| pbr Pre-bend release
| brb Bend release bend
| N.H. Natural Harmonic
| *   Very breif rest
************************************





Comments


Popular P.O.D. tabs & chords
Boom 2 Bass Tabs
Get Up, Stand Up 1 Bass Tabs
Image Bass Tabs
Sleeping Awake 4 String Bass Tabs
Going In Blind Chords
Booyaka 619 Rey Mysterio Tabs
Coming Back 1 Tabs
Full Color Tabs
Sleeping Awake Tabs
Strength Of My Life Ukulele


Song lyrics



↑ Back to top | Tablatures and chords are parodies/interpretations of the original songs. You may use it for private study, scholarship, research or language learning purposes only
© 2014 AZChords.com Contact us | Privacy policy | DMCA | Add/correct tabs | Request tabs | Top 50 tabs