» » »

Snuff The Punk Tabs (ver.2)

Artists:  A B C D E F G H I J K L M N O P Q R S T U V W X Y Z # 

Snuff The Punk Tabs (ver.2)

P.O.D.
Rating:
0/5 (0 votes)

Hard to play? Try these video lessons and learn fast.
                i saw that the only POD songs here are their new stuff from fundamental elements, but their old stuff is much harder, and i like it better...people should buy it...i put up a request for this tab also cuz i dont know the whole thing...and all you people who dont know that POD is a christian band, listen to the lyrics

tuning is normal except 6th string E is dropped to D

first part:
E:-----9---------------7---------------4--
B:-----9---------------7---------------4--
G:----------------------------------------
D:-0-0-------------0-0-------------0-0----
A:-0-0-------------0-0-------------0-0----
D:-0-0-------------0-0-------------0-0----

second part:
D:--------2-3-----3-2--
A:-4-------------------

or:
A:-----------------------
D:-11-----14-15-----15-14

the rhythm's hard to tab, so listen to the song

third part:
E:---9---------------
B:-----9-------------
G:--------9-10-10-10-

repeat that a couple times
            
Hard to play? Try these video lessons and learn fast. | Correct




comments powered by Disqus
↑ Back to top | Tablatures and chords are parodies/interpretations of the original songs. You may use it for private study, scholarship, research or language learning purposes only