» » »

P.O.D., Roots In Stereo Tabs (ver.1)

Artists:  A B C D E F G H I J K L M N O P Q R S T U V W X Y Z # 

Roots In Stereo Tabs (ver.1)

P.O.D. Tabs
 Rating:
4/5 (4 votes)
Roots In Stereo lessons Tabs too difficult? Try these video lessons and learn fast
1
                
Tuning: C-G-C-F-A-D

INTRO:

D|---------------------|
A|---------------------|
F|---------------------|
C|---------------------|
G|---55--Bass-00--Bass-|
C|---55-------00-------|


VERSE:

D|---------------------------------------------|
A|---------------------------------------------|
F|---------------------------------------------|
C|----353535------353535-----------------------|
G|-55---------Bass-------00-353535-Bass-353535-|
C|-55--------------------00--------------------|


D|-----------------------------------------------------------|
A|-----------------------------------------------------------|
F|-----------------------------------------------------------|
C|----353535-355355-353535-3530------------------------------|
G|-55---------------------------00-353535-355355-353535-3530-|
C|-55---------------------------00---------------------------|

CHORUS

Guitar 1:

D|----------------|
A|----------------|
F|----------------|
C|-75073--750735--|
G|-75073--750735--|
C|-75073--750735--|

Guitar 2:

D|-------------------------|
A|-------------------------|
F|-14/12-14/9-14/12-14/9/7-|
C|-x--x--x--x-x--x--x------|
G|-12/10-12/7-12/10-12/7/5-|
C|-------------------------|


That's all i have the solo is something i need to work on but yea. Listen to the song to 

Jah Bless
            
Submit corrections

comments powered by Disqus
↑ Back to top | P.O.D. Tabs for Roots In Stereo. Lyrics for acoustic guitar and electric guitar. 1 Tablatures and chords are parodies/interpretations of the original songs. You may use it for private study, scholarship, research or language learning purposes only