» » »

P.O.D., Portrait Tabs (ver.1)

Artists:  A B C D E F G H I J K L M N O P Q R S T U V W X Y Z # 

Portrait Tabs (ver.1)

P.O.D. Tabs
Rating:
0/5 (0 votes)
Portrait lessons Tabs too difficult? Try these video lessons and learn fast
                Tittle: Portrait(album)

Tuning: Drop C  (C,G,C,F,A,D)

. PM (palm mute)
h - hammer on
/ - slide

INTRO
D|------------------------------------------------------------|
A|--12-12--10-10--8-8--7--7-7-7--8-8-------7-7--5--5-5-5------|
F|------------------------------------7-7---------------------|    
C|------------------------------------------------------------|x4
G|------------------------------------------------------------|
C|------------------------------------------------------------|

INTRO 2 
D|---------------------------------------------------|
A|---------------------------------------------------|
F|---------------------------------------------------|
C|---2-2-2-0-2/5--2-2-2-0-2/5--2-2-2-0-2/5------------|x1
G|---2-2-2-0-2/5--2-2-2-0-2/5--2-2-2-0-2/5------------|
C|---2-2-2-0-2/5--2-2-2-0-2/5--2-2-2-0-2/5------------|


LAST PART OF INTRO 2
D|----------------|
A|----------------|
F|----------------|
C|----2-2-2-0-----|x1
G|----2-2-2-0-----|
C|----2-2-2-0-----|


VERSE
D|------------------------------------------------------|       |----------------|
A|------------------------------------------------------|       |----------------|
F|------------------------------------------------------|       |---77-7---------|
C|---2-2-2-0-2/5--2-2-2-0-2/5--2-2-2-0-2/5--2-2-2-0-2/5--| x1   |---77-7---------|x4
G|---2-2-2-0-2/5--2-2-2-0-2/5--2-2-2-0-2/5--2-2-2-0-2/5--|      |---55-5---------|
C|---2-2-2-0-2/5--2-2-2-0-2/5--2-2-2-0-2/5--2-2-2-0-2/5--|      |---------00-0---                                                                PM        .. .
                                                                                   
CHORUS
D|---------------------------------------------|
A|---------------------------------------------|
F|------------------7~-------------------------|
C|---2~-------------7~--7--4-4h5h4h5h4h5-------|x2
G|---2~-------------5~-------------------------|
C|---2~----------------------------------------|

SOLO
D|---------------------------------------------------------------------------|
A|---------------------------------------------------------------------------|
F|---------------------------------------------------------------------------|
C|---------------------------------------------------------------------------|x2
G|---9-10-12-9-10-12-9-10-12-9-10-12-9-10-12--10-9-10-7-9-10-9-10-12--10h9---|
C|---------------------------------------------------------------------------|

-----------------------------|      |------------------------------------------------|
-----------------------------|      |------------------------------------------------|
-----------------------------|      |------------------------------------------------|
--9-10-12-10--9-7-9-10-9-7---| x2  |------------------------------------------------|x1
-----------------------------|      |--7-7-7-5-7--7-7-9-5-5-5-9-5-5-5-9-5-5-5-10~----|
-----------------------------|      |------------------------------------------------|

CHORUS
D|---------------------------------------------|
A|---------------------------------------------|
F|------------------7~-------------------------|
C|---2~-------------7~--7--4-4h5h4h5h4h5-------|x4
G|---2~-------------5~-------------------------|
C|---2~----------------------------------------|

CHORUS (GUITAR 2)
D|---------------------------------------------------------------------------|
A|---17~--17^-15-12-13---12-10-12-10-8--7-8--7-7-8--10--7-8--5-7~-------------|
F|---------------------------------------------------------------------------|
C|---------------------------------------------------------------------------|x1
G|---------------------------------------------------------------------------|
C|---------------------------------------------------------------------------|

CHORUS 2
D|---------------------------------------------------------|
A|---------------------------------------------------------|
F|-----------------------------7~----9-7-4-----------------|
C|---2-2-2-0-2--x-2-x-2-x-2----7~---------4h5h4h0----------|x1
G|---2-2-2-0-2--x-2-x-2-x-2----5~--------------------------|
C|---2-2-2-0-2--x-2-x-2-x-2--------------------------------|

CHORUS 2 /GUITAR 2 (INTRO)
D|------------------------------------------------------------|
A|--12-12--10-10--8-8--7--7-7-7--8-8-------7-7--5--5-5-5------|
F|------------------------------------7-7---------------------|    
C|------------------------------------------------------------|x2
G|------------------------------------------------------------|
C|------------------------------------------------------------|

LAST PART OF CHORUS 2
D|------------------------------|
A|------------------------------|
F|------------------------------|
C|---2-2-2-0-2--x-4-x-4-x-2-----|x1
G|---2-2-2-0-2--x-4-x-4-x-2-----|
C|---2-2-2-0-2--x-4-x-4-x-2-----|


I have not included the pedal effects,  
even so I believe that it is quite well :-)
Send me the corrections to my e-mail,thank you.
            

comments powered by Disqus
↑ Back to top | P.O.D. Tabs for Portrait. Lyrics for acoustic guitar and electric guitar. Tablatures and chords are parodies/interpretations of the original songs. You may use it for private study, scholarship, research or language learning purposes only