>
 >
Mistakes And Glories

Mistakes And Glories Guitar Tabs

P.O.D. - Mistakes And Glories chords, tabs, tablatures, lyrics

Guitar lessons | Add/correct | Request | Top 50 tabs Artists:  A B C D E F G H I J K L M N O P Q R S T U V W X Y Z 0-9

Mistakes And Glories Guitar Tabs – P.O.D.

CD, Sheet music, Poster

Do you like Mistakes And Glories? Share with your friends now
TabsTabs v2
This is my first tab so it might not be a 100%. I looked for a good tab for this song 
found one that didn't sound at all like the song. This is a great song and it's a shame 
only one person has made an effort to tab it.
Tuning- 1 step down: Guitar 1(D-g-c-f-a-d)
                     Guitar 2(D-g-c-f-a-d)
                             Intro
  |--------X2-------------------------------------------------------------|
d|16~-16~-16~-16b17r16----17~-17~-17~-17~---------------------------------|
a|----------------------------------------18-17~-17b18r17---17~-17~-17~---|
f|------------------------------------------------------------------------|X2
c|------------------------------------------------------------------------|
g|------------------------------------------------------------------------|
D|------------------------------------------------------------------------|

d|--------------------------------|
a|--------------------------------|
f|--7\---------7\-----------------|X4
c|--7\---2-----7\---2------5------|
g|--5\---2-----5\---2------5------|
D|0------0---0------0---0--3------|
  .          .          .
                               Verse
 |--------X2--------------------------------------------------------------|
d|16~-16~-16~-16b17r16----17~-17~-17~-17~---------------------------------|
a|----------------------------------------18-17~-17b18r(17)-17~-17~-17~---|
f|------------------------------------------------------------------------|X2
c|------------------------------------------------------------------------|
g|------------------------------------------------------------------------|
D|------------------------------------------------------------------------|

          Gtr 1
d|------------------------------|
a|------------------------------|
f|------------------------------|
c|------------------------------|X4
g|--5*-2-2-2-3-3-3-4-4-4-5-5-5--|
D|0-3*-0-0-0-1-1-1-2-2-2-3-3-3--|

 |--------X2-----------------------------------------------------|
d|16~-16~-16~-16b17r16----17~-17~-17~-17~-17-19--17--16~-16~-----|
a|---------------------------------------------------------------|
f|---------------------------------------------------------------|
c|---------------------------------------------------------------|
g|---------------------------------------------------------------|
D|---------------------------------------------------------------|


d|16~-16~-16~-16b17r16----17~-17~-17~-17~-17b18r17--19~---20~--19~--------|
a|------------------------------------------------------------------------|
f|------------------------------------------------------------------------|
c|------------------------------------------------------------------------|
g|------------------------------------------------------------------------|
D|------------------------------------------------------------------------|

d|---------|
a|---------|
f|---------|
c|---------|
g|-2-2-2-2-|
D|-0-0-0-0-|
   . . . .

d|------------------------------|
a|------------------------------|
f|------------------------------|
c|------------------------------|X4
g|--5*-2-2-2-3-3-3-4-4-4-5-5-5--|
D|0-3*-0-0-0-1-1-1-2-2-2-3-3-3--|

                                Chorus
d|--------------------------------------------|
a|--------------------------------------------|
f|--------7----------7------------------------|
c|7-7-7-7-7--7-7-7-7-7----------7----------7--|
g|5-5-5-5-5--5-5-5-5-5--7-7-7-7-7--7-7-7-7-7--|
D|----------------------5-5-5-5-5--5-5-5-5-5--|
  . . . .    . . . .    . . . .    . . . .

d|--------------------------------------------|
a|--------------------------------------------|
f|--------5----------5------------------------|
c|5-5-5-5-5--5-5-5-5-5----------5----------5--|
g|3-3-3-3-3--3-3-3-3-3--5-5-5-5-5--5-5-5-5-5--|
D|----------------------3-3-3-3-3--3-3-3-3-3--|
  . . . .    . . . .    . . . .    . . . .

d|--------------------------------------------|
a|--------------------------------------------|
f|--------7----------7------------------------|
c|7-7-7-7-7--7-7-7-7-7----------7----------7--|
g|5-5-5-5-5--5-5-5-5-5--7-7-7-7-7--7-7-7-7-7--|
D|----------------------5-5-5-5-5--5-5-5-5-5--|
  . . . .    . . . .    . . . .    . . . .

d|--------------------------------------------|
a|--------------------------------------------|
f|--------5----------5------------------------|
c|5-5-5-5-5--5-5-5-5-5----------5----------5--|
g|3-3-3-3-3--3-3-3-3-3--5-5-5-5-5--5-5-5-5-5--|
D|----------------------3-3-3-3-3--3-3-3-3-3--|
  . . . .    . . . .    . . . .    . . . .

d|--------------------------------------------|
a|--------------------------------------------|
f|--------------------------------------------|
c|2-------------------------------------------|
g|2--Let-ring---------------------------------|
D|0-------------------------------------------|

 |---w/ heavy effects--------------------|           ____
d|----------------------------|       ---|
a|----------------------------|Gtr 1  ---|
f|----------------------------|       ---|
c|-2h3p2h3p2h3p2h3-3-5-5-5----|       ---|
g|----------------------------|       ---|
D|----------------------------|       ---|
                                       X4
d|----------------------------|        |
a|----------------------------|        |
f|----------------------------|Gtr 2   |
c|----------------------------|        |
g|----------------------------|        |
D|-----------------0-0-0-0----|        |
                   . . . .           ---

                                    ___
d|----------------------------|      ---|
a|----------------------------|Gtr 1 ---|
f|--------------------------------------|
c|-2-3-2-3-2-3-2-3-3-5-5-5--------------|
g|--------------------------------------|
D|--------------------------------------|
   . . . . . . . . . . . .            X4

d|--------------------------------------|
a|--------------------------------------|
f|----------------------------|Gtr 2----|
c|--------------------------------------|
g|----------------------------|      ---|
D|-0-1-0-1-0-1-0-1-0-3-3-3----|      ---|
   . . . . . . . . . . . .          ---

Solos are too time consuming to figure figure out-- skipping it-- if you're a decent 
you can improvise over it pretty easily--

although, the rhythm behing it is this:

d|----------------------------|     d|----------------------------|
a|----------------------------|     a|----------------------------|
f|----------------------------| X4  f|----------------------------| X4
c|-2-3-2-3-2-3-2-3-3-5-5-5----|     c|-7-5-7-5-7~-5-7-8-8-8-------|
g|----------------------------|     g|----------------------------|
D|----------------------------|     D|----------------------------|

if you're a decent player you can improvise a solo over it pretty easily

d|------------------------------|
a|------------------------------|
f|------------------------------|
c|------------------------------|X4
g|--5*-2-2-2-3-3-3-4-4-4-5-5-5--|
D|0-3*-0-0-0-1-1-1-2-2-2-3-3-3--|

d|--------------------------------------------|
a|--------------------------------------------|
f|--------7----------7------------------------|
c|7-7-7-7-7--7-7-7-7-7----------7----------7--|
g|5-5-5-5-5--5-5-5-5-5--7-7-7-7-7--7-7-7-7-7--|
D|----------------------5-5-5-5-5--5-5-5-5-5--|
  . . . .    . . . .    . . . .    . . . .

d|--------------------------------------------|
a|--------------------------------------------|
f|--------5----------5------------------------|
c|5-5-5-5-5--5-5-5-5-5----------5----------5--|
g|3-3-3-3-3--3-3-3-3-3--5-5-5-5-5--5-5-5-5-5--|
D|----------------------3-3-3-3-3--3-3-3-3-3--|
  . . . .    . . . .    . . . .    . . . .

d|--------------------------------------------|
a|--------------------------------------------|
f|--------7----------7------------------------|
c|7-7-7-7-7--7-7-7-7-7----------7----------7--|
g|5-5-5-5-5--5-5-5-5-5--7-7-7-7-7--7-7-7-7-7--|
D|----------------------5-5-5-5-5--5-5-5-5-5--|
  . . . .    . . . .    . . . .    . . . .

d|--------------------------------------------|
a|--------------------------------------------|
f|--------5----------5------------------------|
c|5-5-5-5-5--5-5-5-5-5----------5----------5--|
g|3-3-3-3-3--3-3-3-3-3--5-5-5-5-5--5-5-5-5-5--|
D|----------------------3-3-3-3-3--3-3-3-3-3--|
  . . . .    . . . .    . . . .    . . . .


d|--------------------------------------------|
a|--------------------------------------------|
f|--------7----------7------------------------|
c|7-7-7-7-7--7-7-7-7-7----------7----------7--|
g|5-5-5-5-5--5-5-5-5-5--7-7-7-7-7--7-7-7-7-7--|
D|----------------------5-5-5-5-5--5-5-5-5-5--|
  . . . .    . . . .    . . . .    . . . .

d|--------------------------------------------|
a|--------------------------------------------|
f|--------5----------5------------------------|
c|5-5-5-5-5--5-5-5-5-5----------5----------5--|
g|3-3-3-3-3--3-3-3-3-3--5-5-5-5-5--5-5-5-5-5--|
D|----------------------3-3-3-3-3--3-3-3-3-3--|
  . . . .    . . . .    . . . .    . . . .

d|--------------------------------------------|
a|--------------------------------------------|
f|--------7----------7------------------------|
c|7-7-7-7-7--7-7-7-7-7----------7----------7--|
g|5-5-5-5-5--5-5-5-5-5--7-7-7-7-7--7-7-7-7-7--|
D|----------------------5-5-5-5-5--5-5-5-5-5--|
  . . . .    . . . .    . . . .    . . . .

d|--------------------------------------------|
a|--------------------------------------------|
f|--------5----------5------------------------|
c|5-5-5-5-5--5-5-5-5-5----------5----------5--|
g|3-3-3-3-3--3-3-3-3-3--5-5-5-5-5--5-5-5-5-5--|
D|----------------------3-3-3-3-3--3-3-3-3-3--|
  . . . .    . . . .    . . . .    . . . .

(Play with some wah this time around)
d|------------------------------|
a|------------------------------|
f|------------------------------|
c|------------------------------|X3
g|--5--2-2-2-3-3-3-4-4-4-5-5-5--|
D|0-3--0-0-0-1-1-1-2-2-2-3-3-3--|

d|------------------------------|
a|------------------------------|
f|------------------------------|
c|--5----3-3----4-4----5-5------|
g|--5----3-3----4-4----5-5------|
D|0-3--0-1-1--0-2-2--0-3-3------|


So there ya have it, my first tab. i'm 95% percent sure its correct, but if you 
have any corrections
Legend:

h = hammer on
p = pull off
b = bend
r = release
/\= slide into or out of
~ = vibrato
. = palm mute
* = pause





Comments


Popular P.O.D. tabs & chords
Ridiculous 1 Bass Tabs
Rock The Party 1 Bass Tabs
Will You Chords
Alive Full Version Tabs
Execute The Sounds 1 Tabs
Find My Way Tabs
Ridiculous Tabs
Say Hello Tabs
Set It Off Tabs
Set It Off 1 Tabs


Song lyrics



↑ Back to top | Tablatures and chords are parodies/interpretations of the original songs. You may use it for private study, scholarship, research or language learning purposes only
© 2014 AZChords.com Contact us | Privacy policy | DMCA | Add/correct tabs | Request tabs | Top 50 tabs