» » »

Lie Down Tabs (ver.3)

Artists:  A B C D E F G H I J K L M N O P Q R S T U V W X Y Z # 

Lie Down Tabs (ver.3)

P.O.D.
Rating:
0/5 (0 votes)

Hard to play? Try these video lessons and learn fast.
                Tuning-drop D

                  intro (clean)    x1
1------------------------------------------------------------------------------------
2------------------------------------------------------------------------------------
3-9--7-7-7-7-7--9--7-7-7-7-7--9--7-7-7-7-7-12-12-12-5-5-5-10-10-10-------------------
4------------------------------------------------------------------------------------
5------------------------------------------------------------------------------------
6------------------------------------------------------------------------------------

                 Intro part II    x4
1------------------------------------------------------------------------------------
2------------------------------------------------------------------------------------
3------------------------------------------------------------------------------------
4-8--7-7-7--10--7-7-7--8--7-7-7--10--7-7-7--8--7-7-7--10--7-7-7--8--7-7-7--10--7-7-7-
5-8--7-7-7--10--7-7-7--8--7-7-7--10--7-7-7--8--7-7-7--10--7-7-7--8--7-7-7--10--7-7-7-
6-8--7-7-7--10--7-7-7--8--7-7-7--10--7-7-7--8--7-7-7--10--7-7-7--8--7-7-7--10--7-7-7-
                                            .  . . .  .   . . .  .  . . .  .   . . .

                  Verse       x8
1------------------------------------------------------------------------------------
2------------------------------------------------------------------------------------
3------------------------------------------------------------------------------------
4-7--9-9-9--7--9-9-9--7-9-(slide)-10-------------------------------------------------
5------------------------------------------------------------------------------------
6------------------------------------------------------------------------------------
  .  . . .  .  . . .  .

                  Chorus       x8
1------------------------------------------------------------------------------------
2------------------------------------------------------------------------------------
3------------------------------------------------------------------------------------
4-7--9-9-9--7--9-9-9--7-9-(slide)-10-------------------------------------------------
5-7--9-9-9--7--9-9-9--7-9-(slide)-10-------------------------------------------------
6-7--9-9-9--7--9-9-9--7-9-(slide)-10-------------------------------------------------


                  Fill (with effect)    x4
1------------------------------------------------------------------------------------
2------------------------------------------------------------------------------------
3------------------------------------------------------------------------------------
4------------------------------------------------------------------------------------
5------------------------------------------------------------------------------------
6-8h7-7-7--10h7-7-7--8h7-------------------------------------------------------------


                   Fill part II     x4
1------------------------------------------------------------------------------------
2------------------------------------------------------------------------------------
3------------------------------------------------------------------------------------
4-8h7-7-7--10h7-7-7--8h7-------------------------------------------------------------
5-8h7-7-7--10h7-7-7--8h7-------------------------------------------------------------
6-8h7-7-7--10h7-7-7--8h7-------------------------------------------------------------
  . . . .  .  . . .  . .

                   Fill part III    x4
1------------------------------------------------------------------------------------
2------------------------------------------------------------------------------------
3------------------------------------------------------------------------------------
4-7-7--7(slide)10-10-10--8(slide)(7)-------------------------------------------------
5-7-7--7(slide)10-10-10--8(slide)(7)-------------------------------------------------
6-9-9--9(slide)12-12-12--8(slide)(7)-------------------------------------------------


Fill (with effect)  x2

Chorus  x4

Fill part II  x4

Fill part III  x4

Verse  x8

Chorus  x8

Fill (with effect)  x4

Fill part II  x4

Fill part III  x4


                Outro     x16
1------------------------------------------------------------------------------------
2------------------------------------------------------------------------------------
3------3------3----3-----------------------------------------------------------------
4-8--9---8--9---8-9------------------------------------------------------------------
5------------------------------------------------------------------------------------
6------------------------------------------------------------------------------------


Thats it except a cr*ppy rap ending

Please rate this
            
Hard to play? Try these video lessons and learn fast. | Correct




comments powered by Disqus
↑ Back to top | Tablatures and chords are parodies/interpretations of the original songs. You may use it for private study, scholarship, research or language learning purposes only