» » »

P.O.D., Know Me Tabs (ver.1)

Artists:  A B C D E F G H I J K L M N O P Q R S T U V W X Y Z # 

Know Me Tabs (ver.1)

P.O.D. Tabs
 Rating:
4/5 (4 votes)
Know Me lessons Tabs too difficult? Try these video lessons and learn fast
1
                Palm mute  . . .
bend    ^
tremelo picking  !

Intro
E------------------------------------|
B------------------------------------|
G------------------------------------|
D---------------------------2h3p2p0--|
A------------------------------------|
D-0-3-2-2--0-0-3-2-2-x---------------|

E------------------------------------|
B------------------------------------|
G------------------------------------|
D---------------------------2h3p2p0--|
A-0-3-2-2--0-0-3-2-2-x---------------|
D-0-3-2-2--0-0-3-2-2-x---------------|

E------------------------------------|
B------------------------------------|
G------------------------------------|
D---------------------------2h3p2p0--|
A-0-3-2-2--0-0-3-2-2-x---------------|
D-0-3-2-2--0-0-3-2-2-x---------------|
  .        . .            

E--------------------|
B--------------------|
G--------------------|
D--2h3p2p0--2h3p2p0--|
A--------------------|
D--------------------|

Verse
E---------------------------|
B---------------------------|
G---------------------------|
D-0-2-22-0-0-22-22-2h3p2p0--|
A-0-2-22-0-0-22-22----------|
D-0-2-22-0-0-22-22----------|

E----------------------|
B----------------------|
G----------------------|
D-2-3-33-0-0-3-33--x0--|
A-2-3-33-0-0-3-33--x0--|
D-3-3-33-0-0-3-33--x0--|

Chorus
E------------------------------------|
B---------6--------------------------|
G-----------5------------------------|
D-2-0----------0-2-2-2-0-0-2-2-2-3^--|
A-2-0----------0-2-2-2-0-0-2-2-2-3^--|
D-2-0----------0-2-2-2-0-0-2-2-2-----|

Interlude
E------------------------------|
B-----------6-(6)--------------|
G-----------5-(5)------5-------|
D-------0---3-(3)--------------|
A---0---------------3----------|
D------------------------------|
      
E---------------------|
B------6--------------|
G------x--5-(5)----5--|
D-3-0--3--x-(x)-3--x--|
A-3-0-----3-(3)-3--3--|
D-3-0-----------3-----|

End
E------------------------|
B------------------------|
G--2-3-2-----------------|
D--------3-2-3-2-----0---|
A------------------3-----|
D------------------------|
            
Submit corrections

comments powered by Disqus
↑ Back to top | P.O.D. Tabs for Know Me. Lyrics for acoustic guitar and electric guitar. 1 Tablatures and chords are parodies/interpretations of the original songs. You may use it for private study, scholarship, research or language learning purposes only