» » »

P.O.D., Get Up, Stand Up Bass tabs (ver.2)

Artists:  A B C D E F G H I J K L M N O P Q R S T U V W X Y Z # 

Get Up, Stand Up Bass tabs (ver.2)

P.O.D. Tabs
Rating:
0/5 (0 votes)
Hard to play? Try these video lessons and learn fast.
                this is my first tab so, it is not that accurate.
I hope you would appreciate it.thank!!!


this is for the chorus and intro:

                   pause      small pause             small pause
G----------------------------------------------------------------------------|
D--------------------------4----------------------------------(4)------------|
A--2(2)-----4(5)------------(5)-----4(5)4(2)----2(2)--------2----------------|
E----------------------------------------------------------------------------|


G-------------------------|
D-------------------------|
A--------------2(2)-------|
E--2(2)--5(5)-------------|

verse:

G-----------------------------------------------------------|
D-----------------4--4-------------------(4)----------------| do this 3x
A----------5(5)--5--5--5(4)--0-(2(2)---2-----0(0)-0(0)------|
E-7(7)--(7)-------------------------------------------------|

                                  long pause
G---------------------------------------------------------------------|
D----------------4------------------------(4)-------------------------|
A-2(2)----4(5)----(5)------4(5)4(2)------2------------------2(2)------|
E--------------------------------------------------2(2)-5(5)----------|


solo:


G-----------------------------|
D-------4-4-----------5-5-----|
A-0(2)-2-2------0(2)-2-2------|
E-----------------------------|
            

comments powered by Disqus
↑ Back to top | P.O.D. Bass for Get Up, Stand Up. Lyrics for acoustic guitar and electric guitar. Tablatures and chords are parodies/interpretations of the original songs. You may use it for private study, scholarship, research or language learning purposes only