» » »

Breathe Babylon Tabs (ver.2)

Artists:  A B C D E F G H I J K L M N O P Q R S T U V W X Y Z # 

Breathe Babylon Tabs (ver.2)

P.O.D.
Rating:
0/5 (0 votes)

Hard to play? Try these video lessons and learn fast.
                  Album:The Warriors EP
  Year:1998
 
  Intro(w/phaser)bunch o' times
e|---------------------------|
B|-------------8-88888-88888-|
G|-7-77777-77777-77777-77777-|
D|-x-xxxxx-xxxxx-xxxxx-xxxxx-|
A|-5-55555-55555-55555-55555-|
D|---------------------------|
  (w/distortion)6x
e|----------------------------|
B|----------------------------|
G|----------------------------|
D|-1-1111-1-1111-1-1111-1-0-1-|
A|-1-1111-1-1111-1-1111-1-0-1-|
D|-1-1111-1-1111-1-1111-1-0-1-|
P.M. ----   ----   ---- - - -
  Chorus (Bunch o' times again)
e|-----------------------|
B|-----------------------|
G|-----------------------|
D|-4-3-4-444-3-4-3-4-444-|
A|-4-3-4-444-3-4-3-4-444-|
D|-4-3-4-444-3-4-3-4-444-|
  Verse
e|------------------------|
B|------------------------|
G|-7-77-7/8\5~5/6\5~5/6\5~|
D|-X-XX-X-X-X-X-X-X-X-X-X-|
A|-5-55-5/6\3~3/4\3~3/4\3~|
D|------------------------|
  Chorus
  Verse
  Chorus
  Bridge
 
  Gtr.1(clean and Palm Muted)
e|-----------------------|
B|-----------------------|
G|-----------------------|
D|-----------------------|
A|-5-5-5-8-7-5-5-5h6p5-3-|
D|-----------------------|
 | Gtr. 2(clean w/delay)right b4 he starts singing
e|-----------10~|
B|--------------|
G|----7~9~10~---|
D|--------------|
A|-5~~----------|
D|--------------|
  (w/dis.)4x
e|------------------------|
B|------------------------|
G|------------------------|
D|-0-00-------0-0---------|
A|-0-00-8-7-5-0-0-5h6p5-3~|
D|-0-00-------0-0---------|
P.M. --
  (Play again from where Gtr. 2 comes in)
  Chorus
  End
e|-----------|
B|-----------|
G|-----------|
D|-4\3\2\1-0~|
A|-4\3\2\1-0~|
D|-4\3\2\1-0~|

    Enjoy :)
            
Hard to play? Try these video lessons and learn fast. | Correct




comments powered by Disqus
↑ Back to top | Tablatures and chords are parodies/interpretations of the original songs. You may use it for private study, scholarship, research or language learning purposes only