» » »

Passion, Ordinary People Tabs (ver.1)

Artists:  A B C D E F G H I J K L M N O P Q R S T U V W X Y Z # 

Ordinary People Tabs (ver.1)

Passion Tabs
 Rating:
4/5 (4 votes)
Ordinary People lessons Tabs too difficult? Try these video lessons and learn fast
1
                If you want to be exact, this song is tuned half a step down with a capo on the 
3rd fret. But having a standard tuning with a capo on the 2nd seems to do the job aswell.

INTRO
E ------------------------X--------------X----|		
B ----2/4--2-----3---3----X---3------3---X----|
G -----------0---4---4----X---4------4---X----|
D ---------------4---4----X---4------4---X----|
A ------------------------X--------------X----|
E ---------------3---3----X---3---3------X----|

E ---------------X-----------3---X-----|		
B ----3H5---5----X----5------5---X-----|
G ----4-----4----X----4------4---X-----|   (X2)
D ----5-----5----X----5------5---X-----|
A ----3----------X----3---3------X-----|
E ---------------X---------------X-----|

E ----2----2----X---------2------------|
B ----2----2----X---------2------------|
G ----2----2----X---------2------------|
D ----0---------X-----0----------------|
A --------------X----------------------|
E --------------X----------------------|

VERSES AND CHORUS
 
E --------------------------------------X-----------------X------|	
B ----2/4------5-----------3------3-----X---3--------3----X------|
G ---------0---5-----------4------4-----X---4--------4----X------|
D -------------4-----------4------4-----X---4--------4----X------|
A --------------------------------------X-----------------X------|
E -------------4---4-------3------3-----X---3----3--------X------|

E ---------------X-----------3---X-----|		
B ----3H5---5----X----5------5---X-----|
G ----4-----4----X----4------4---X-----|   (X2)
D ----5-----5----X----5------5---X-----|
A ----3----------X----3---3------X-----|
E ---------------X---------------X-----|

E ----2----2----X---------2------------|
B ----2----2----X---------2------------|
G ----2----2----X---------2------------|
D ----0---------X-----0----------------|
A --------------X----------------------|
E --------------X----------------------|

BRIDGE – PLAY TWICE

E --------------------------X-----------------X---------------|
B --------------------------X-----------------X---------------|
G ---------------3----3-----X-------3---------X---------------|
D ---------------3----3-----X-------3---------X---------------|
A --------------------------X-----------------X---------------|
E ---------------3----3-----X-------3---------X---------------|

E --------------------------X-----------------X---------------|
B --------------------------X-----------------X---------------|
G ---------------3----3-----X-------3---------X---------------|
D ---------------3----3-----X-------3---------X---------------|
A ---------------3----3-----X-------3---------X---------------|
E --------------------------X-----------------X---------------|


E ----2----2----X---------2------------|
B ----2----2----X---------2------------|
G ----2----2----X---------2------------| (X2)
D ----0---------X-----0----------------|
A --------------X----------------------|
E --------------X----------------------|
AFTER PLAYING THE BRIDGE THE FIRST TIME, FINISH WITH THIS CHORD AT THE END

E ----2----2----X---------2-------------|
B ----2----2----X---------2-------------|
G ----2----2----X---------2------5------| 
D ----0---------X-----0----------5------|
A --------------X-----------------------|
E --------------X----------------4------|

FINAL CHORUS AND OUTRO

E --------------------------------------X-----------------X------|	
B -------------5-----------3------3-----X---3--------3----X------|
G -------------5-----------4------4-----X---4--------4----X------|
D -------------4-----------4------4-----X---4--------4----X------|
A --------------------------------------X-----------------X------|
E -------------4---4-------3------3-----X---3----3--------X------|

E ---------------X-----------3---X-----|		
B ----3H5---5----X----5------5---X-----|
G ----4-----4----X----4------4---X-----|   (X2)
D ----5-----5----X----5------5---X-----|
A ----3----------X----3---3------X-----|
E ---------------X---------------X-----|

E ----2----2----X---------2------------|
B ----2----2----X---------2------------|
G ----2----2----X---------2------------|
D ----0---------X-----0----------------|
A --------------X----------------------|
E --------------X----------------------|

E --------------------------------------X-----------------X------|	
B ----2/4------5-----------3------3-----X---3--------3----X------|
G ---------0---5-----------4------4-----X---4--------4----X------|
D -------------4-----------4------4-----X---4--------4----X------|
A --------------------------------------X-----------------X------|
E -------------4---4-------3------3-----X---3----3--------X------|

E ---------------X-----------3---X-----|		
B ----3H5---5----X----5------5---X-----|
G ----4-----4----X----4------4---X-----|   (X2)
D ----5-----5----X----5------5---X-----|
A ----3----------X----3---3------X-----|
E ---------------X---------------X-----|

E ----2----2----X---------2------------|
B ----2----2----X---------2------------|
G ----2----2----X---------2------------|
D ----0---------X-----0----------------|
A --------------X----------------------|
E --------------X----------------------|
            
Submit corrections

comments powered by Disqus
↑ Back to top | Passion Tabs for Ordinary People. Lyrics for acoustic guitar and electric guitar. 1 Tablatures and chords are parodies/interpretations of the original songs. You may use it for private study, scholarship, research or language learning purposes only