>
 >
Lemonade

Lemonade Guitar Tabs

Passion - Lemonade chords, tabs, tablatures, lyrics

Guitar lessons | Add/correct | Request | Top 50 tabs Artists:  A B C D E F G H I J K L M N O P Q R S T U V W X Y Z 0-9

Lemonade Guitar Tabs – Passion

CD, Sheet music, Poster

Do you like Lemonade? Share with your friends now
Bass TabsChordsTabsTabs v2Tabs v3Tabs v4Ukulele
Lemonade by Passion

Standard Tuning

Riff 1
e|--------------------------------|
B|--5--5-----4-----4--3--3-----3--|
G|--5--5--T--5---T-5--4--4--T--4--|
D|--5--5--A--4---A-4--4--4--A--3--|
A|--------P--5---P-5--------P-----|
E|--5--5--------------3--3-----4--|

Riff 2
e|-------------------------------------|
B|--5--5-----44------4-----3--3-----3--|
G|--5--5--T--55-----5--5---4--4--T--4--|
D|--5--5--A--44---4-----4--4--4--A--3--|
A|--------P--55--5---------------P-----|
E|--5--5-------------------3--3-----4--|

Basically all you do is play riff 1 then 2 everytime.

When you get to the 3rd chorus repeat at the end instead of playing riff 2, you finger pick.

This is the last riff when Passion sings "She's exactly what I need." As you know this 
is slower.

Riff 3
"She's exa - ct - ly  wh-at        I  need (with the long run)
    e|-------------------------------------------2---|
    B|--5----5---------0-0-----0----0----3-------2---|  (strum the
    G|--5----5----T----2-2-T---2----2-T--2-------0---|   last chord)
    D|--5----5----A----1-1-A---1----1-A--4-------2---|
    A|------------P----2-2-P-2----2---P--2--2-1--0---|
    E|--5----5---------------------------------------|

"She's exa - ct - ly  what   I   neeeeeeed
    e|------5h7p5----------4-------------3--|
    B|-----5-----5--------4-------------3---|
    G|----5-------5------5-------------4----|
    D|---5---------5----4-------------4-----|
    A|-----------------5--------------------|
    E|--5----------------------------3------|





Comments


Popular Passion tabs & chords
As Long As You Wait For Me Chords
We Believe Our God Is Jesus Once And For All Chords
Lemonade 3 Tabs
My Love Tabs
My Love 2 Tabs
Ordinary People Tabs
So Sick 1 Tabs
So Sick 4 Tabs
Touch Of Heaven Tabs
Sing To The King Ukulele


Song lyrics



↑ Back to top | Tablatures and chords are parodies/interpretations of the original songs. You may use it for private study, scholarship, research or language learning purposes only
© 2014 AZChords.com Contact us | Privacy policy | DMCA | Add/correct tabs | Request tabs | Top 50 tabs