» » »

Passion, Ordinary People Tabs (ver.2)

Artists:  A B C D E F G H I J K L M N O P Q R S T U V W X Y Z # 

Ordinary People Tabs (ver.2)

Passion Tabs
 Rating:
4/5 (5 votes)
Ordinary People lessons Tabs too difficult? Try these video lessons and learn fast
                Numbers are relative to capo(3rd Fret)
Tuning is half step down


Verses and chorus
E ---------------------------x------------------------------------|
B ---------------4-----------x-----------4------------------4-----|
G ---------------3-----------x-----------3------------------3-----|
D ---------------4-----------x-----------4------------------4-----|
A ---------------x-----------x-----------x------------------x-----|
E ---------------2-----------x-----------2---------2--------------|

E ---------------------------x------------------------------------|    (x2)
B ---------------4-----------x-----------4------------------4-----|
G ---------------3-----------x-----------3------------------3-----|
D ---------------4-----------x-----------4------------------4-----|
A ---------------2-----------x-----------2----------2-------------|
E ---------------x-----------x-----------x------------------x-----|

E --------------2-----------2-----------x---2-------------------------------|
B --------------2-----------2-----------x---2----------------------------4--|
G --------------2-----------2-----------x---2----------2\4---------------4--|
D --------------0-----------x-----------x--------0-----------------------3--|
A --------------x-----------x-----------x--------------------------------x--|
E --------------x-----------x-----------x-----------------------0--------3--|


Bridge (x2)

E ---------------x------------x----------x----------------------------|
B ---------------x------------x----------x----------------------------|
G ---------------3------------x----------3------------------3---------|
D ---------------3------------x----------3------------------3---------|
A ---------------x------------x----------x----------------------------|
E ---------------3------------x----------3---------3------------------|

E --------------------------x------------------------------------------|
B --------------------------x----------------------- ------------------|
G------------------ 3-------x------3--------------------3--------------|
D ------------------3-------x------3--------------------3--------------|
A ------------------3-------x------3--------3--------------------------|
E------------------ x-------x------x--------x--------------------------|


E --------------2-------x--------2--------------2-----|
B --------------2-------x--------2--------------2-----|
G --------------2-------x--------2--------------2-----|
D --------------0-------x--------0------0-------------|
A --------------x-------x--------x--------------------|
E --------------x-------x--------x--------------------|
            
Submit corrections

comments powered by Disqus
↑ Back to top | Passion Tabs for Ordinary People. Lyrics for acoustic guitar and electric guitar. Tablatures and chords are parodies/interpretations of the original songs. You may use it for private study, scholarship, research or language learning purposes only