>
 >
Well Done

Well Done Guitar Tabs

Passion - Well Done chords, tabs, tablatures, lyrics

Guitar lessons | Add/correct | Request | Top 50 tabs Artists:  A B C D E F G H I J K L M N O P Q R S T U V W X Y Z 0-9

Well Done Guitar Tabs – Passion

CD, Sheet music, Poster

Do you like Well Done? Share with your friends now
Tabs
Tab edited by: Lamberto R. Yaya, Jr.
Original Powertab by Shaun Williams

I decided to edit Shaun's tab in relation to the capo for those who don't use Powertab.
also made some changes and extended it to the end of the song.  I'm not too sure about
end of the song since this is my first time tabbing.  I tried to match the lyrics with 
song.  I hope it's not confusing.

Capo - 3rd fret
Standard Tuning (EADGBE)

Intro
e|-------------------------------------------------|
B|--2h3--3-----------3-----3-----3-----3-----3-----|
G|--2----2-----------0-----2-----2-----2-----2-----|
D|--2h4--4--------2--------0-----0-----0-----0-----|
A|--2----------0-----------------------------------|
E|----------x-----------x--3--3-----x--3--3-----x--|

e|----------------------------------------0----------------------|
B|---------------2h3p2--------3-----3-----3-----3----------------|
G|---------------2h4p2--------0-----2-----------2------2-------0-|
D|--(0)-----2h4---------2-----2-----0-----------0----0-------0---|
A|-------2-----------------0-------------------------------------|
E|---------------x---------------x--3--3-----x--3--3-----0h2-----|

e|------------------------------------------------------------0--|
B|-----------2h3p2--------3-----3-----3-----3-----3-----3-----3--|
G|-----------2h4p2--------0-----2-----2-----2-----2-----0--------|
D|------2h4---------2-----2-----0-----0-----0-----0-----0--------|
A|--/2-----------------0-----------------------------------------|
E|-----------x---------------x--3--3-----x--2--2-----x--0--0-----|

e|----------------------0~------------------|
B|------------3--------2~-------------------|
G|----0-------0-------0~--------------------|
D|----0----0-----2---2~---------------------|
A|------------------0~----------------------|
E|--0---------x--------------------------x--|

Verse 1
e|-----------------------------------------------------------------|
B|----------3----3-----3-------3-----3-----------------------3-----|
G|----------0----0-----2-------2-----2-----------------------0-----|
D|----------2----2-----0-------0-----0----------2h4----------2-----|
A|--2-------0--------------------------------2----------0----------|
E|-------x----------x--3----x--3--3-----x------------x----------x--|
    Sometimes...  understand            Why I   thought...

e|---------------------------------------------------------------|
B|----------3-----3-------3---------------------3-----3----3-----|
G|----------2-----2-------2---------------------0-----2----2-----|
D|--(0)-----0-----0----0-----0-----2h4----------2-----0----0-----|
A|------------------------------2----------0---------------------|
E|-------3-----x--3-------x-------------x----------x--3-------x--|
    time    in... world              To go and...  awhile...

e|-----------------------------------0~------------------|
B|--3----3-------0-------0----------0~-------------------|
G|--2----2-------4-------4---------4~--------------------|
D|--0----0-------4-------4--------4~---------------------|
A|-------------------------------------------------------|
E|--2-------x----4----x--4----x--4~-------------------x--|
      For... little while

e|----------------------------------------------------|
B|------------------------3-------3-------3-----3-----|
G|------------------------0-------2-------2-----2-----|
D|--(0)------2h4----------2-------0-------0-----0-----|
A|-------/2----------0--------------------------------|
E|----------------x----------x----3----x--3--3-----x--|
             Too caught up ... life               I didn't see

e|-------------------------------------------------|
B|------------------3----------3-------3-----3-----|
G|------------------0----------2-------2-----2-----|
D|-----2h4----------2-----(0)--0-------0-----0-----|
A|--2----------0-----------------------------------|
E|----------x----------x-------3----x--3--3-----x--|
         the pain...      smile

e|-------------------------------------------------------------|
B|---------------------3----------3-----3-----3----------3-----|
G|---------------------0----------2-----2-----2----------0-----|
D|--------2h4----------2----------0-----0-----0----------0-----|
A|--0-/2----------0--------------------------------------------|
E|-------------x----------x----3-----x--2--2-----x----0-----x--|
           And now...     with me                Shoulda...

e|--------------------------------|
B|--3-----3---------------3--3----|
G|--0-----0---------------0--0----|
D|--0-----0----(0)-----2-----2----|
A|------------------0--------0----|
E|--0--0-----x------------x-------|
    woulda...alright

Pre-chorus + Chorus
e|------------------------------------------------------------|
B|-----3-------3-----3-----3----------3-----2-------2---------|
G|-----0-------0-----0-----0----------3-----0-------0---------|
D|--2----------4-----4-----4----------2-----2----2-----2------|
A|------------------------------------------1-------------/2--|
E|-----x----0-----x--0--0-----x----2-----x----------x---------|
    Wish I knew...   turn back...hands of time  Cuz maybe then

e|------------------------------------0-------------------|
B|---------------3-------0-------0----0-------------3-----|
G|---------------0-------4-------4------------------4-----|
D|--2h4----------2-------4-------4----------(0)-----4-----|
A|----------0---------------------------------------------|
E|-------x----------x----4----x--4-------x-------3-----x--|
    I'd  be here by your side         Wish that I   had

e|----------------------------------------------------------|
B|--2----1-----3----3-----3---------------3-----2-----------|
G|--2----1-----0----------0---------------4-----2-----------|
D|--2----1-----0----------0-------(0)-----4-----2---(2)-----|
A|----------------------------------------------------------|
E|--2----1--x--0-------x--0----x-------3-----x--2--------x--|
    done just..little...    Wish.. I      could see you

e|-----------------------------------------------------------------|
B|--------2h3--------------3-------3-----2-----------------3-------|
G|--------2h4-----------2--4-------4-----2-----------------0-------|
D|-----2-------------2-------------4-----2----(2)-----(0)--0-------|
A|--2-------------2------------------------------------------------|
E|-------------x----------------3-----x--2---------x-------0----x--|
    one   more    time     But I...   God    holds your life

e|---------------------------------------------------------------|
B|--3-----3-------------3-----3----3-------3------------------2--|
G|--0-----0-------------2-----2----2-------0------------------0--|
D|--0-----0-----(0)-----0-----0----0-------0------------------2--|
A|------------------------------------------------------------1--|
E|--0--0-----x-------1-----x----------x----0----x----------------|
             Your battle   is fi~~~nally won      and he said well done

e|--------------------------------------------------------|
B|-----------2h3h2--------3-----3-------------------------|
G|-----------2h4h2--------0-----2-------------------------|
D|------2h4---------2-----2-----0-------------------------|
A|--/2-----------------0----------------------------------|
E|-----------x---------------x--3----------------------x--|
                                   My faithful servant well done

e|-----------------------------------0-------------------|
B|-----------2h3h2--------3-----3----3--------3----------|
G|-----------2h4h2--------0-----2------------2-----------|
D|------2h4---------2-----2-----0-----------0------------|
A|--/2-----------------0---------------------------------|
E|-----------x---------------x--3-------x--3-----3----x--|

Verse 2
e|-------------------------------------------------|
B|---------------------3-------3-------3-----3-----|
G|---------------------0-------2-------2-----2-----|
D|--0-----2h4----------2-------0-------0-----0-----|
A|-----2----------0--------------------------------|
E|-------------x----------x----3----x--3--3-----x--|
          Too  many times...lives               Do we take

e|----------------------------------------------|
B|------------------3-----3----3-----3----3-----|
G|------------------0-----2----2-----2----2-----|
D|-----2h4----------2-----0----0-----0----0-----|
A|--2----------0--------------------------------|
E|----------x----------x--3-------x--3-------x--|
      things...granted I  don't understand...no

e|---------------------------------------------------------|
B|------------------3-------3-------3-----3----------3-----|
G|------------------0-------2-------2-----2----------0-----|
D|-----2h4----------2-------0-------0-----0----------0-----|
A|--2----------0-------------------------------------------|
E|----------x----------x----3----x--2--2-----x----0-----x--|
       When... in...   our eyes              Thinking...be

e|--------------------------------|
B|--3-----3---------------3--3----|
G|--0-----0---------------0--0----|
D|--0-----0----(0)-----2-----2----|
A|------------------0--------0----|
E|--0--0-----x------------x-------|
    here for all times

Pre-chorus + Chorus
e|-------------------------------------------------------------|
B|-----3--------3-----3-----3--3--------3-----2-------2--------|
G|-----0--------0-----0-----0--0--------3-----0-------0--------|
D|--2-----0-----4-----4-----4-----2-----2-----2----2-----2-----|
A|--------------------------------------------1-------------2--|
E|-----x-----0-----x--0--0-----x-----2-----x----------x--------|
    Wish I knew...    turn back... hands of time  Cuz maybe then

e|-------------------------------------0-------------------|
B|----------------3-------0-------0----0-------------3-----|
G|----------------0-------4-------4------------------4-----|
D|--2h4--------2----------4-------4----------(0)-----4-----|
A|----------0----------------------------------------------|
E|-------x-----------x----4----x--4-------x-------3-----x--|
   You'd be here by  my side           Wish that I had

e|-------------------------------------------------------|
B|--2----1-----3----3-----3------------3-----2-----------|
G|--2----1-----0----------0------------4-----2-----------|
D|--2----1-----0----------0------------4-----2---(2)-----|
A|-------------------------------------------------------|
E|--2----1--x--0-------x--0----x----3-----x--2--------x--|
    done just..little...   Wish... I   could see you

e|------------------------------------------------------------------|
B|--------2h3--------2h3----2-------3-----2-----------------3-------|
G|--------2h4--------2h4----2-------4-----2-----------------0-------|
D|-----2--------------------2-------4-----2----(2)-----(0)--0-------|
A|--2-------------2-------------------------------------------------|
E|-------------x------------2----3-----x--2---------x-------0----x--|
    one   more   time       But...  that...holds   your life

e|----------------------------------------------0-----------------|
B|--3-----3-------------3-----3-----3-----3-----3-----2-----------|
G|--0-----0-------------2-----2-----2-----0-----------2-----2-----|
D|--0-----0-----(0)-----0-----0-----0-----0-----------2-----2-----|
A|----------------------------------------------------------------|
E|--0--0-----x-------1-----x--1--1-----x--0--0-----x--2--2-----x--|
             Your battle   is fi~~~nally  won               Wish that

Chorus
e|-------------------------------------------------------------------|
B|--------3-----2----1-------3--3-----3------------3-----2-----2-----|
G|--------4-----2----1-------0--------0------------4-----2-----2-----|
D|-(0)----4-----2----1-------0--------0------------4-----2-----2-----|
A|-------------------------------------------------------------------|
E|-----3-----x--2----1--x----0-----x--0----x----3-----x--2--2-----x--|
    I     had   done just...little...  Wish that...could see   you

e|-----------------------------------------------------------------|
B|--------2h3--------2h3----2----3-------2-----------------3-------|
G|--------2h4--------2h4----2----4-------2-----------------0-------|
D|-----2--------------------2----4-------2----(2)-----(0)--0-------|
A|--2-------------2------------------------------------------------|
E|-------------x------------2----3----x--2---------x-------0----x--|
    one   more    time      But...that...holds your   life

e|--------------------------------------------------|
B|--3-----3-------3-----3----3-----3-------3--------|
G|--0-----0-------2-----2----2-----0-------0--------|
D|--0-----0-------0-----0----0-----0----0-----------|
A|--------------------------------------------------|
E|--0--0-----x----1--x--1-------x--0-------x--0--2--|
             Your... is fi~~~nally won...

Pre-chorus + Chorus
e|------------------0--------------------------------------------|
B|-----------3--------------------------2-------2----------------|
G|-----------0----0------0-----------0----------0----------------|
D|--0-----2--2--2-----------------2----------2-----2-----2h4-----|
A|-----------------------------1---------------------/2----------|
E|-----0-----0--------------x-------------------x-------------x--|
    Wish...         turn... the hands...    Cuz maybe..  I'd  be

e|------------------------------0------------------------------|
B|--------3-------0----0--------0--------------3----2----2-----|
G|--------0-------4----------------------------4----2----2-----|
D|-----2----------4-------4--------------------4----2----2-----|
A|--0----------------------------------------------------------|
E|-----------x----4----------4---------x----3-------2-------x--|
    here  by... side              Wish... I    had  done just...

e|----------------------------------------------------------------|
B|--3--------3-------------3-----2----1-----------2h3--------2h3--|
G|--0--------0-------------4-----2----1-----------2h4--------2h4--|
D|--0--------0-------------4-----2----1--------2------------------|
A|------------------------------------------2-------------2-------|
E|--0-----x--0-----x----3-----x--2----1--x-------------x----------|
    litte...  Wish... I    could see  you   one   more    time

e|---------------------------------0------------------------------|
B|--2----3-------2---------3---------------3-------3-----3-----3--|
G|--2----4-------2---------0---------------2-------2-----2-----2--|
D|--2----4-------2---------2----2----------0-------0-----0-----0--|
A|----------------------------------------------------------------|
E|--2----3----x--2----x----0------------0--1----1-----1-----1-----|
    But...that... holds...life        Your battle is won

e|----------------------0-----------------0-------0-------------0h2~--|
B|--3-------3----------2----------------3---3-------3----------3~-----|
G|--0-------0---------0---------------2-------2-------2---2---2~------|
D|--2-------2--------2-------------0------------0-------0----0~-------|
A|------------------0-------------------------------------------------|
E|--0---0-------0-----------------------------------------------------|
                And God said well done

Sometimes I dont understand
Why I thought that I had
All the time in the world
To go and see you awhile
For just a little while.

Too caught up in my own life
I didn't see the pain you hid with a smile
And now you're not here with me
Shoulda been, coulda been, woulda been, alright

Wish I knew how to turn back the hands of time
Cus maybe then I'd be here by your side
Wish that I had done just a little more
Wish that I could see you one more time
But I know that God holds your life
Your battle is finally won and he said well done
My faithful servant well done

Too many times in our lives
do we take things for granted
I dont understand it, no
When its right in front of our eyes
Thinking they would be here for all times

Wish I knew how to turn back the hands of time
Cus maybe then you'd be here by my side
Wish that I had done just a little more
Wish that I could see you one more time
But I know that God holds your life
Your battle is finally won

Wish that I had done just a little more
Wish that I could see you one more time
But I know that god holds your life
Your battle is finally won
Wish I knew how to turn back the hands of time
Cus maybe then I'd be here by your side

Wish that I had done just a little more for you
Wish that I could see you one more time
But I know that God holds your life
Your battle is finally won
And God said well done

| /  slide up
| h  hammer-on
| p  pull-off
| ~  vibrato (or let it ring)
| x  Mute note (slap strings)





Comments


Popular Passion tabs & chords
I Could Sing Of Your Lovefforever Chords
Sing To The King Chords
We Believe Our God Is Jesus Once And For All Chords
Lemonade 1 Tabs
Lemonade 3 Tabs
So Sick 2 Tabs
Sweet Music Tabs
Burning In My Soul Ukulele
Lemonade Ukulele
Sing To The King Ukulele


Song lyrics



↑ Back to top | Tablatures and chords are parodies/interpretations of the original songs. You may use it for private study, scholarship, research or language learning purposes only
© 2014 AZChords.com Contact us | Privacy policy | DMCA | Add/correct tabs | Request tabs | Top 50 tabs