» » »

Passion, My Love Tabs (ver.3)

Artists:  A B C D E F G H I J K L M N O P Q R S T U V W X Y Z # 

My Love Tabs (ver.3)

Passion Tabs
 Rating:
4/5 (4 votes)
My Love lessons Tabs too difficult? Try these video lessons and learn fast
                ---------------------------------------------------------------------------
                           My Love - Passion
---------------------------------------------------------------------------
Something like this I think??

Tuning:Standard

e|-------------------------------------------------------------------------|
B|-----------7h8----------------7h8---------------6--------------3---------|
G|--------7------------------7-----------------5--------------3------------|
D|-----9------------------7-----------------7--------------3---------------|
A|--7---------------------------------0--5---------------------------------|
E|------------------0--7-----------------------------0--3------------------|


e|------------------------7h10---------------------------------------------|
B|------------5-----------------8h10--8--------------7h8--------------6----|
G|---------5-----------7---------------------------7---------------5-------|
D|------5-----------9---------------------------7---------------7----------|
A|---------------7------------------------7---------------0--5-------------|
E|--5----------------------------------------7-----------------------------|


e|-----x------x------|R
B|-----3------5------|E
G|-----3------5------|P
D|-----3------5------|E
A|-----x------x------|A   
E|--0--3---0--5------|T


Mix it up!!
            
Submit corrections

comments powered by Disqus
↑ Back to top | Passion Tabs for My Love. Lyrics for acoustic guitar and electric guitar. Tablatures and chords are parodies/interpretations of the original songs. You may use it for private study, scholarship, research or language learning purposes only