» » »

Passion, My Love Tabs (ver.2)

Artists:  A B C D E F G H I J K L M N O P Q R S T U V W X Y Z # 

My Love Tabs (ver.2)

Passion Tabs
Rating:
0/5 (0 votes)
My Love lessons Tabs too difficult? Try these video lessons and learn fast
                i only seen one tab for this so id thought id make one up so here it is...any 
plz try it out ok ..


peace,
tongan pryde fo sho

e|-------------------x---------------------x-------------------x----------------|
B|--------------7h8--x--8-------------7h8--x--8-----------7h8--x----------------|
G|---------7---------x--7---------7--------x--7--------7-------x----------------|
D|-----9-------------x--9-----9------------x--9-----9----------x----------------|
A|--7----------------x-----7---------------x-----7-------------x----------------|
E|-------------------x---------------------x-------------------x----------------|

e|---------------------------------------------7h10-------------r---------------|
B|--8-----------5------------7------------8----------8h10-------e---------------|
G|--7---------5------------7-----------7-------------------7----p---------------|
D|--9-------5------------7----------9---------------------------e---------------|
A|-------------------------------7------------------------------a---------------|
E|-------5-----------7------------------------------------------t---------------|
            
Submit corrections

comments powered by Disqus
↑ Back to top | Passion Tabs for My Love. Lyrics for acoustic guitar and electric guitar. Tablatures and chords are parodies/interpretations of the original songs. You may use it for private study, scholarship, research or language learning purposes only