» » »

Silvertoes Tabs (ver.2)

Artists:  A B C D E F G H I J K L M N O P Q R S T U V W X Y Z # 

Silvertoes Tabs (ver.2)

Parokya Ni Edgar
Rating:
0/5 (0 votes)

Hard to play? Try these video lessons and learn fast.
                
Verse I: Drum/bassline

   G          Em
Wag ka nang mag-alala

   C           D
hinding hindi ako in love sa yo

   G           Em
bakit ba pakiramdam mo pa yata

   C	      D
lahat kami ay naaakit mo

   G           Em
miss miss pakitigil lang please

   C           D
ang iyong pagpapantasya

   G           E
hindi ka na nakakatuwa

   C                   D
papagulpi na kita sa gwardyang may batuta


G-Em-C-D
ha ya ya ya...

Verse II: Rythms

 G          Em
Hindi ko talaga ma-gets

 C              D
kung bakit ka ganyan

     G            Em
ang feeling moy sabik sa iyo

     C            D
ang lahat ng kalalakihan

  G                E
sorry pagpasensyahan mo na

  C                    D
mali talaga ang iyong inaakala

  G               Em
lahat kami ay nandidiri sa iyo

   C                    D
ikaskas mo na sana ang mukha mo sa simento

Verse III:

 G	Em
Di kami na tu-turn-on

     C		D
sa kutis mong kulay champurado

 G        Em
di kami naaakit

     C          D
sa labi mong garamucho

     G              Em
IVoh please naman pakitanggap mo nalang

     C		D
ang katotohanan naganyan ka pinanganak

    G		Em
wag ka nang magpapanggap

    C		D
na ikaw ay isang dalagang ubod nang ganda

    G                             C
kahit na alam naman natin na ang karakas mo

    D
ay ubod nang sama

Adlib:

e ---------------------------------------------------------8---7--|
b -------8--7-------------------7---10--8-----7--8--10------10----|
g ---/7-------7----------7--9--------------9----------------------|
d ------------------7--9------------------------------------------|
a ----------------------------------------------------------------|
e ----------------------------------------------------------------|

-7--8--8--10--8/10/8--8/7---------------------------15--12--------|
---------------------------10--8-------13------------------15-----|
------------------------------------------/12----12---------------|
------------------------------------------------------------------|
------------------------------------------------------------------|
------------------------------------------------------------------|

-------------------------------------------------------8----7-----|
-----8--7-------------------7---10--8----7--8--10--------10-------|
-/7-------7----------7--9--------------9--------------------------|
--------------7--9------------------------------------------------|
------------------------------------------------------------------|
------------------------------------------------------------------|

7--8--8--10--8/10/8-------8/7-------------------------15--12------|
-------------------------------10--8---------13--------------15---|
---------------------------------------------/12---12-------------|
------------------------------------------------------------------|
------------------------------------------------------------------|
------------------------------------------------------------------|

------------------------------------------------------------------|
-17--15----12/13/12-----12----------------------------------------|
--------------------------14-------14(b)--14*--14*--12------------|
---------------------------------------------------------------14-|
------------------------------------------------------------------|
------------------------------------------------------------------|

------------------------------------------------------------------|
--------------------------------------------12--13p.o.12----12----|
-----------12-----14p.o.12----12---12h.o.14--------------14-------|
--12h.o.14------------------14------------------------------------|
------------------------------------------------------------------|
------------------------------------------------------------------|


--------15--17p.o.15-----15--17(b)----15--19-17--15--19--17--15---|
-13/17----------------17------------------------------------------|
------------------------------------------------------------------|
------------------------------------------------------------------|
------------------------------------------------------------------|
------------------------------------------------------------------|


-----------15--17--19--15h.o.17--15--19-17-15------15--17p.o.15---|
-19--17--15-17--19-----------------------------19-----------------|
------------------------------------------------------------------|
------------------------------------------------------------------|
------------------------------------------------------------------|
------------------------------------------------------------------|

---------15--12----------------------------------------------|
-19--17------------15--13--12h.o.13--15p.o.13----------------|
-----------------------------------------------12/14--12-----|
-------------------------------------------------------------|
-------------------------------------------------------------|
-------------------------------------------------------------|


Verse V:

  G	  Em       C            D
siguro nga naman ay may mga mas pangit pa sa yo

  G       Em         C	    D
pero at least hindi sila nagpapacute katulad mo

  G     Em            C        D
nakakabadtrip ka nakakairita tuwing ikay nakikita

  G                  Em
di ko alam bat ang laki ng ulo mo

  C                     D
magingat ingat ka baka ikaw ay sagasaan ko


Repeat Verse III and IV

          G-Em-C-D
Then  hayayaya...... til end

TNK U

PAKI RATE NA LNG..........

Gustu ko lang batiin ung mga ka band ko sila: Paulo Galang(Rythms),
Christian "kulot" Cruz (Voculots), Frank Bunag (Bass) and
"Budjie" Garcia (Drums)at lahat ng student at
gitarista sa notre dame practice lang this song.

tsaka tagal nang rinerequest tong song na ito doon.

Wag nyo lang kalimutan
            
Hard to play? Try these video lessons and learn fast. | Correct




comments powered by Disqus
↑ Back to top | Tablatures and chords are parodies/interpretations of the original songs. You may use it for private study, scholarship, research or language learning purposes only