» » »

Parokya Ni Edgar, Silvertoes Tabs (ver.1)

Artists:  A B C D E F G H I J K L M N O P Q R S T U V W X Y Z # 

Silvertoes Tabs (ver.1)

Parokya Ni Edgar Tabs
 Rating:
4/5 (4 votes)
Silvertoes lessons Tabs too difficult? Try these video lessons and learn fast
                                   wasupman! this song was really hard to kapa pero nakuha ko. 
i want ot dedicate this song for Rachel G Lantaco since she ask for it.
anyways enjoy!
solo (effects used: Chorus) 
   
e ---------------------------------------------------------8---7-----7--8--8--10--8/10/8--8/7-------------------------15--12-------------:
b -------8--7-------------------7---10--8----7--8--10--------10--------------------------------10--8---------13--------------15---------:
g ---/7-------7----------7--9--------------9-----------------------------------------------------------------/12-----12----------------------:
d ------------------7--9------------------------------------------------------------------------------------------------------------------------:
a -----------------------------------------------------------------------------------------------------------------------------------------------:
e -----------------------------------------------------------------------------------------------------------------------------------------------: 

e ---------------------------------------------------------8---7-----7--8--8--10--8/10/8--8/7-------------------------15--12--------------:
b -------8--7-------------------7---10--8----7--8--10--------10--------------------------------10--8---------13--------------15----------:
g ---/7-------7----------7--9--------------9-----------------------------------------------------------------/12-----12-----------------------:
d ------------------7--9-------------------------------------------------------------------------------------------------------------------------:
a ------------------------------------------------------------------------------------------------------------------------------------------------:
e ------------------------------------------------------------------------------------------------------------------------------------------------: 
 
e -------------------------------------------------------------------------------------------------------------------------------------------------:
b -17--15----12/13/12-----12----------------------------------------------------------------------------------------12--13p.o.12----12--:
g --------------------------14-------14(b)--14*--14*--12---------------------12--14p.o.12-----12---12h.o.14----------------14------:
d ---------------------------------------------------------------14----12h.o.14------------------14-------------------------------------------:
a -------------------------------------------------------------------------------------------------------------------------------------------------:
e -------------------------------------------------------------------------------------------------------------------------------------------------: 

e --------15--17p.o.15-----15--17(b)----15--19-17-15--19--17--15----------------------15--17--19--15h.o.17--15--19-17-15----:
b -13/17-----------------17------------------------------------------------19--17--15-17--19--------------------------------------------19-:
g --------------------------------------------------------------------------------------------------------------------------------------------------:
d --------------------------------------------------------------------------------------------------------------------------------------------------:
a --------------------------------------------------------------------------------------------------------------------------------------------------:
e --------------------------------------------------------------------------------------------------------------------------------------------------: 
 
e ---15--17p.o.15------------15--12---------------------------------------------------:                                                                           .
b -------------------19--17------------15--13--12h.o.13--15p.o.13-----------------:                                                                           .
g --------------------------------------------------------------------------12/14--12----:                                                                           .
d ------------------------------------------------------------------------------------------:                                                                           .
a ------------------------------------------------------------------------------------------:                                                                           .
e ------------------------------------------------------------------------------------------:
            
Submit corrections

comments powered by Disqus
↑ Back to top | Parokya Ni Edgar Tabs for Silvertoes. Lyrics for acoustic guitar and electric guitar. Tablatures and chords are parodies/interpretations of the original songs. You may use it for private study, scholarship, research or language learning purposes only