» » »

Your Song Chords (ver.1)

Artists:  A B C D E F G H I J K L M N O P Q R S T U V W X Y Z # 

Your Song Chords (ver.1)

Parokya Ni Edgar
Rating:
0/5 (0 votes)

Hard to play? Try these video lessons and learn fast.
                your song (one and only you)
parokya ni edgar (gab chee kee)
bigotilyo (hidden track #17)

stanza1:
      B         F#
it took one look 
        G#m                E
then forever laid out in front of me
        B          F#
one smile then i died
     G#m                E
only to be revived by you
         B              F#                     G#m
there i was thought i had everything figured out
     E                              B
it goes to show just how much i know 
           E               F#
about the way life plays out

chorus: 
     B        F#    E
i take one step away
         G#m   -    F#       B       F#
then i find myself coming back to you
    E            G#m -  F#         B  F#  G#m  E
my one and only one and only you

stanza2:
          B
now i know 
         F#                   G#m
that i know not a thing at all
  E                            B
except the fact that i'am yours
          E         F#
and that you are mine

bridge: 
 G#m        F#                             E
oh if they told me that this wouldn't be easy

e-7-7--7-6-7--7-7-7-
b-------------------
g-------------------
d-------------------
a-------------------
e-------------------

    G#m     F#             E
and no i'm not one to complain


"This is the syllabication tab of the song" (akin-akin lang ito) hehe
 you will not hear this in the song but i like to share this anyway!
 
syllabication tab: (chorus only)

  take one step away...
e-7b-7s9b-6b-6h7-----
b----------------7v--
g--------------------
d--------------------
a--------------------
e--------------------

  then i find myself coming back to you...
e-------7-6---6-7b---9-9s11-
b-7-7-7-----7---------------
g---------------------------
d---------------------------
a---------------------------
e---------------------------

  my one and only one and only you!
e----11-12-9-7--11-12-9-7--7bv-
b-12---------------------------
g------------------------------
d------------------------------
a------------------------------
e------------------------------

Legend:
h - hammer on
b - full bend
s - slide to
v - vibrato

that's all!

sub.by:
Eron Reyes
            
Hard to play? Try these video lessons and learn fast. | Correct




comments powered by Disqus
↑ Back to top | Tablatures and chords are parodies/interpretations of the original songs. You may use it for private study, scholarship, research or language learning purposes only