>
 >
Silvertoes 3

Silvertoes 3 Guitar Tabs

Parokya Ni Edgar - Silvertoes 3 chords, tabs, tablatures, lyrics

Guitar lessons | Add/correct | Request | Top 50 tabs Artists:  A B C D E F G H I J K L M N O P Q R S T U V W X Y Z 0-9

Silvertoes 3 Guitar Tabs – Parokya Ni Edgar

CD, Sheet music, Poster

Do you like Silvertoes 3? Share with your friends now
Bass TabsBass Tabs v2ChordsTabsTabs v2Tabs v3Tabs v4Ukulele
-------------------------------------------------------------------------------
                             SILVERTOES - Parokya ni Edgar
-------------------------------------------------------------------------------

plz rate my tabs >.<

Tuning: Standard

e|-----------------------------------------------------------------------------|
B|--------------------------------------------------13-13-12----12-13-15-------|
G|---7/12p11----------------12-14p12p11----12-12/14----------14----------------|
D|-----------12-------12h14-------------14-------------------------------------|
A|--------------12h14----------------------------------------------------------|
E|-----------------------------------------------------------------------------|

e|------------------------------------15-14----------------------------------|
B|---15p13p12-13-------------------15-------15-------15-13-12-13-12----12----|
G|---------------14p12p11-12/16-16-------------14h16----------------14-------|
D|---------------------------------------------------------------------------|
A|---------------------------------------------------------------------------|
E|---------------------------------------------------------------------------|

e|-----------------------------------------------15-15-----------------------|
B|------------------------12--12-13p12--12-13/15-----------------------------|
G|---14^16v14p12----12--14--14--------14-------------------------------------|
D|---------------14----------------------------------------------------------|
A|---------------------------------------------------------------------------|
E|---------------------------------------------------------------------------|

e|------17-15p14----17-15-14-------------------------------------------------|
B|---15----------15----------15----------------12----------------------------|
G|------------------------------16-14-16p14\12----14p12----------------------|
D|------------------------------------------------------14p12----12----------|
A|------------------------------------------------------------14-------------|
E|---------------------------------------------------------------------------|

e|-----------------------------------------------------15-17p15----15-17^19--|
B|-------------------------------13-15p13----13--15/17----------17-----------|
G|---------12-14p12----12--12h14----------14---------------------------------|
D|---12h14----------14-------------------------------------------------------|
A|---------------------------------------------------------------------------|
E|---------------------------------------------------------------------------|

e|------19p15----19-17-15----------------15-17-19-19p17p15-------------------|
B|---17-------17----------19-17-15-17-19-------------------------------------|
G|---------------------------------------------------------------------------|
D|---------------------------------------------------------------------------|
A|---------------------------------------------------------------------------|
E|---------------------------------------------------------------------------|

e|------19p15-17p15----14-17p14-15p14----15-14-------------------------------|
B|---17-------------17----------------17-------17-15-------------------------|
G|---------------------------------------------------17-16-17p14-16p14-------|
D|---------------------------------------------------------------------17~\--|
A|---------------------------------------------------------------------------|
E|---------------------------------------------------------------------------|

*Update*

Outro:

e|------------------------------------------------------------12-------------|
B|-----8-7----------7-7-8-10-8-12p10----10-12-13p12--12h13-15----------------|
G|---7-----7---7-7-9-9---------------12------------14------------------------|
D|-----------9-9-------------------------------------------------------------|
A|---------------------------------------------------------------------------|
E|---------------------------------------------------------------------------|

e|--15p12-14p12---12------12--------12--------12--------12--------12---------|
B|--------------15--15------15p12-----15p12-----15p12-----15p12-----15p12----|
G|---------------------14^-------14^-------14^-------14^-------14^-------14^-
D|---------------------------------------------------------------------------|
A|---------------------------------------------------------------------------|
E|---------------------------------------------------------------------------|

e|---------------------------------------------------------------------------|
B|---12------------------------------------------12-13p12--12----------------|
G|-----14p12--12---------------12-14p12--12-12h14--------14------------------|
D|----------14--14-12--12-12h14--------14------------------------------------|
A|-------------------14------------------------------------------------------|
E|---------------------------------------------------------------------------|

e|-----------14-15-14-15-17-17^19v17p15--15-19p15-17p15-15\12-12\10--10------
B|------15-17--------------------------17--------------------------12---8-10-|
G|-14/16---------------------------------------------------------------------|
D|---------------------------------------------------------------------------|
A|---------------------------------------------------------------------------|
E|---------------------------------------------------------------------------|
                                                                     T
e|---------------------------------------------------------------------------|
B|---------------15----------------------------------------------------------|
G|---12--12-14-16---16p14-14p12--12--12-11--11--12--12-14^16v14p12---19~-----|
D|-----14----------------------14---------12--14--14--------------14---------|
A|---------------------------------------------------------------------------|
E|---------------------------------------------------------------------------|

e|---17^19v17p15-15-14-15-14--14---------------------------------------------|
B|--------------------------17--17-15--15--------12--------------------------|
G|-----------------------------------16--16p14\12--14-12~--------------------|
D|---------------------------------------------------------------------------|
A|---------------------------------------------------------------------------|
E|---------------------------------------------------------------------------|

e|--------------------------------------------------12-15p14p12--------------|
B|-----------------------------12-15p13p12--12-13-15-----------15------------|
G|-----12-14-14^16v14p12--12-14-----------14---------------------------------|
D|---14-----------------14---------------------------------------------------|
A|---------------------------------------------------------------------------|
E|---------------------------------------------------------------------------|

e|---------------------------------------------------------------------------|
B|---12-15-12-13-10-13-10-12-10----------------------------------------------|
G|------------------------------12~------------------------------------------|
D|---------------------------------------------------------------------------|
A|---------------------------------------------------------------------------|
E|---------------------------------------------------------------------------|





| /  slide up
| \  slide down
| h  hammer-on
| p  pull-off
| ~  vibrato
| ^  bend up
| v  bend down
===============================================================================





Comments


Popular Parokya Ni Edgar tabs & chords
Tatlong Araw Intro Bass Tabs
Mr. Suave Chords
One And Only You 7 Chords
Sampip 1 Chords
Pangarap Lang Kita 5 Tabs
Picha Pie 2 Tabs
Swimming Beach 2 Tabs
One And Only You Ukulele
Reunion Panahon Ng Kasiyahan Ukulele
Track No 1 Ukulele


Song lyrics



↑ Back to top | Tablatures and chords are parodies/interpretations of the original songs. You may use it for private study, scholarship, research or language learning purposes only
© 2014 AZChords.com Contact us | Privacy policy | DMCA | Add/correct tabs | Request tabs | Top 50 tabs