» » »

Parkway Drive, Carrion Tabs (ver.3)

Artists:  A B C D E F G H I J K L M N O P Q R S T U V W X Y Z # 

Carrion Tabs (ver.3)

Parkway Drive Tabs
 Rating:
3.7/5 (39 votes)
Carrion lessons Tabs too difficult? Try these video lessons and learn fast
                ok this is the whole song for carrion it is write i no it so ya enjoy

Tuning: Drop B

intro
             x2
-----------------------------------------|
-----------------------------------------|
------5-------4-------9-----9---9---7----|
--3------0----5--7-------5----5---5-----|
-3-------0-------7-------5---------------|
-3-------0-------7-------5---------------|

1st verse

----------------------------------------------------------|
----------------------------------------------------------|
----5-4h5p4------4---5---4-------9-7h9p7------5---9---7---|
-3----------0--5---5---5------7----------5--5---5---5-----|
-3----------0-----------------7----------5----------------|
-3----------0-----------------7----------5----------------|

2nd Verse
                x4
----------------------------------------|
----------------------------------------|
----------------------------------------|
----------------------------------------|
-8-----7---8-5-----8---5------7h8p7-----|
-0-0-0-0-0-0-0-0-0-0-0-0-0-10-------10--|

VERSE RIFF 2
0:37      x3
-----------------------------|
-----------------------------|
-----------------------10----|
-----------------------10----|
-8-----8---8-5---------8-----|
-0-0-0-0-0-0-0---0-000-8-----|

-----------------------------|
-----------------------------|
-----------------------------|
-----------------------------|
-8-----8---8-5---------------|
-0-0-0-0-0-0-0---0-000-<8>---|

first verse again

----------------------------------------------------------|
----------------------------------------------------------|
----5-4h5p4------4---5---4-------9-7h9p7------5---9---7---|
-3----------0--5---5---5------7----------5--5---5---5-----|
-3----------0-----------------7----------5----------------|
-3----------0-----------------7----------5----------------|

2nd Verse

-----------------------------|
-----------------------------|
-----------------------10----|
-----------------------10----|
-8-----8---8-5---------8-----|
-0-0-0-0-0-0-0---0-000-8-----|

RIDGE RIFF
                 x2
-------------------------------------------------|
-10-10-10-10-10-10-10-10-10-10-10-10-10-10-10-10-|
-12-12-12-12-10-10-10-10-9--9--9--9--7--7--7--7--|
-------------------------------------------------|
-------------------------------------------------|
-------------------------------------------------|

                      x2
------------------------------------------------------|
------------------------------------------------------|
------------------------------------------------------|
------------------------------------------------------|
--8-7-8-7---5-5--5-3-5-5/7--7-7-7--10-8-7-5-----------|
------------------------------------------------------|


---------------------------------------------------------|
---------------------------------------------------------|
----5-4h5p4------4---5---4-------9-7h9p7------5---9---7--|
-3----------0--5---5---5------7----------5--5---5---5----|
-3----------0-----------------7----------5---------------|
-3----------0-----------------7----------5---------------|


-----------------------------------|
-----------------------------------|
-----------------------------------|
------8-7----7-5----8-10--10-8-7---|
--5h8----5h8----5h8--------------8-|

----------------------------------------------------|
----------------------------------------------------|
----------------------------------------------------|
----------------------------------------------------|
----------------------------------------------------|
--8--8--10--8--7--3---------------------------------|
--0--0--0---0--0--0---------------------------------|


----------------------------------------------------------|
----------------------------------------------------------|
----5-4h5p4------4---5---4-------9-7h9p7------5---9---7---|
-3----------0--5---5---5------7----------5--5---5---5-----|
-3----------0-----------------7----------5----------------|
-3----------0-----------------7----------5----------------|


do this the first time
--------------------------------------------------|
--------------------------------------------------|
------555-777----777-999----999-101010----777-999-|
----3----------5----------7-------------5---------|
----3----------5----------7-------------5---------|
----3----------5----------7-------------5---------|

then this the second time
----------------------------------------------------|
----------------------------------------------------|
------555-777----777-999----------------------------|
----3----------5----------7--999-101010--5--777-999-|
----3----------5----------7--------------5----------|
----3----------5----------7--------------5----------|


juss keep doing that till the end and thats it
            
Submit corrections

comments powered by Disqus
↑ Back to top | Parkway Drive Tabs for Carrion. Lyrics for acoustic guitar and electric guitar. Tablatures and chords are parodies/interpretations of the original songs. You may use it for private study, scholarship, research or language learning purposes only