» » »

Carrion Tabs (ver.1)

Artists:  A B C D E F G H I J K L M N O P Q R S T U V W X Y Z # 

Carrion Tabs (ver.1)

Parkway Drive
Rating:
5/5 (7 votes)

Tabs too difficult? Try these video lessons and learn fast.
                guitar legend - dud = down up down
                ddd = down down down
                udu = down up down rotated
                < > = artificial harmonic
                 *  = palm mute
                 x  = hand mute (cover stirngs with hand)
                 +  = natural harmonic

I agree with Juz on this song,
there is no doubt about the fact that carrion
I love this song and i jam to it sometimes 3 to 4 times a day :).

bassically it's like a remake of what juz cook as done just it has 
all the bits he left out or wasn't sure on.
I've done my best and re edited this b4 i've submitted it like
50 times. I spent ages goin over the song over and over again 
trying to see if what i have tabbed out for you is acurate, and it
sounds almost 95% acturate but now i just hope that all of you agree
with that. please rate and comment. I've done my best so hope you enjoy the
tab :). thanx. Benny.

Tunning: Drop B   
INTRO (CLEAN) - SET YOUR 3 WAY TOGGLE SWITCH     
TO CENTRE POSITION FOR THE INTRO.                
                                                 
0:03
c#|---------------------------------------------|
G#|----------------0----------------------------|
 E|-------5--------5-------9--------9---9---7---|
 B|---3---3---0----4---7---7----5-----7---7-----|
F#|---3-------0--------7--------5---------------|
 B|---3-------0--------7--------5---------------|
               |
              \|/
c#|-----------------------------------------|
G#|----------------0------------------------|
 E|-------5--------5-------9--------9---7---|
 B|---3---3---0----4---7---7----5-----7-----|
F#|---3-------0--------7--------5-----------|
 B|---3-------0--------7--------5-----------|
---------------------------------------------------------------

0:15 verse: 
c#|-----------------------------------------------------------|
G#|-----------------------------------------------------------|
 E|----5-4h5p4-------4---5---4------9-7h9p7-------5---9---7---|
 B|-3-----------0--5---5---5----7------------5--5---5---5-----|
F#|-3-----------0---------------7------------5----------------|\
 B|-3-----------0---------------7------------5----------------|\\
    ^           ^  *   *   *    ^            ^  *   *   *      \\\
 Let-ring   cover strings    Let Ring     Hands over            \\\
            with hand after               strings once           x1
            you play that                 played                ///  
                                                               ///
c#|-----------------------------------------------------------|//
G#|-----------------------------------------------------------|/
 E|----5-4h5p4-------4---5---4------9-7h9p7-------5---9---7---|
 B|-3-----------0--5---5---5----7------------5--5---5---5-----|
F#|-3-----------0---------------7------------5----------------|
 B|-3-----------0---------------7------------5----------------|
                   *   *   *                    *   *   *
0:28 - guitar 1 plays this                       guitar 2 plays this once
c#|-------------------------------------|      c#|----------------|over the
G#|-------------------------------------|      G#|----------------|first bit
 E|-------------------------------------|<----->E|----------------|of the verse
 B|-------------------------------------|\      B|-0-----0-----0--|
F#|-8-----7---8-5--8---7------7h8p7-----|\\    F#|-0-----0-----0--|
 B|-0-0-0-0-0-0-0--0-0-0-0-10-------10--|\\\    B|-0-----0-----0--|\
      * *   *        *   *               x2 in                      \
c#|-------------------------------------|///that                    /
G#|-------------------------------------|//order                   /  
 E|-------------------------------------|<------------------------/                          
 B|-------------------------------------|then guitar 2               
F#|-8-----7---8-5--8---5------7h8p7-----|comes in here and plays    
 B|-0-0-0-0-0-0-0--0-0-0-0-10-------10--|this with guitar one      
      * *   *  |     *   *                                             
0:40          \|/                       
c#|--------------------------|
G#|--------------------------|
E |--------------------------|
B |-----------------------7--|
F#|-8-----8---8-5---------8--| x4
B |-0-0-0-0-0-0-0---0-000-8--|
      * *   *  |    * ***
              \|/   d dud
C#|----------------------------|on the
G#|----------------------------|fourth time
E |----------------------------|don't play the b blat.
B |----------------------------|just play the artificial harmonic
F#|-8-----8---8-5---------<8>--|of that chord as shown.
B |-0-0-0-0-0-0-0---0-000------|
      * *   * | *   * ***       
0:52          \|/   d dud 
c#|-------------------------------------|
G#|-------------------------------------|
 E|-------------------------------------|
 B|-------------------------------------|
F#|-8-----7---8-5--8---5------7h8p7-----|
 B|-0-0-0-0-0-0-0--0-0-0-0-10-------10--|
      * *   *  |     *   * 
              \|/
C#|-------------------------------------|
G#|-------------------------------------|
 E|-------------------------------------|
 B|-------------------------------------|
F#|-8-----7---8-5--8---7------7h8p7-----|
 B|-0-0-0-0-0-0-0--0-0-0-0-10-------10--|
      * *   *        *   * 
----------------------------------------------------------------
1:04  Chrous   
c#|-----------------------------------------------------------|
G#|-----------------------------------------------------------|
 E|----5-4h5p4-------4---5---4------9-7h9p7-------5---9---7---|
 B|-3-----------0--5---5---5----7------------5--5---5---5-----|
F#|-3-----------0---------------7------------5----------------| x2
 B|-3-----------0---------------7------------5----------------|
----------------------------------------
 and then straight into verse 2:
 but this time without the artificial
C#|--------------------------|harmonic.
G#|--------------------------|
E |--------------------------|
B |-----------------------7--|
F#|-8-----8---8-5---------8--| x4
B |-0-0-0-0-0-0-0---0-000-8--|
      * *   *  |    * ***   Band 
1:28b         \|/   d dud - comes back in between 1:31-:32 
c#|--------------------------------------------------|
G#|--------------------------------------------------|
 E|-12-12-12-12-10-10-10-10--9--9--9--9--7--7--7--7--|
 B|-12-12-12-12-12-12-12-12-12-12-12-12-12-12-12-12--| x2
F#|--------------------------------------------------|
 B|--------------------------------------------------|
---------------------------------------------------------
Solo starts beweteen 1:34-:35 goes till 1:47 
c#|---------------------------------------------|
G#|---------------------------------------------|
 E|---------------------------------------------|
 B|---------------------------------------------|
F#|-8--8-8-7h8p7-5--3-5-5/7-7-7-5-7-7-10-8-7-5--| x2
 B|---------------------------------------------|
------------------------------------------------------------
chorus: coms in between 1:47-:48 
c#|------------------------------------------------------|
G#|------------------------------------------------------|
 E|----5-4h5p4-------4---5---4------9-7h9p7-------5---9--|
 B|-3-----------0--5---5---5----7------------5--5---5----|
F#|-3-----------0---------------7------------5-----------|
 B|-3-----------0---------------7------------5-----------|
    ^           ^  *   *   *    ^            ^  *   *
 let ring    let ring        let ring     let ring
---------------------------------------------------------------------------
1:59 - Bridge
c#|---------------------------------------------------------------------|
G#|---------------------------------------------------------------------|
 E|---------------------------------------------------------------------|
 B|-0h5h8p7---------0h5h8p7p5---------0h5h8/10---------8p7p5\3----------|
F#|---------------------------------------------------------------------|
 B|---------00-0-00-----------00-0-00----------00-0-00---------00-0-00--|
            **   **        |  **   **          **   **         **   **    \ x2
                          \|/                                             /   

c#|------------------------------------------------------------------------|
G#|------------------------------------------------------------------------|
 E|------------------------------------------------------------------------|
 B|-0h5h8p7---------0h5h8p7p5---------0h5h8/10---------8p7p5-7-7--8-7-5-2--|
F#|----------------------------------------------------------8-8-10-8-7-3--|
 B|---------00-0-00-----------00-0-00----------00-0-00---------------------|
            **   **           **   **          **   **  
2:27 - chorus ---------------------------------------------------
c#|-----------------------------------------------------------|
G#|-----------------------------------------------------------|
 E|----5-4h5p4-------4---5---4------9-7h9p7-------5---9---7---|
 B|-3-----------0--5---5---5----7------------5--5---5---5-----|
F#|-3-----------0---------------7------------5----------------| x2
 B|-3-----------0---------------7------------5----------------|
   |_______________*___*___*__||________________*___*___*__|  
       play this in clean      O.D. + Band comes back in here  

c#|-----------------------------------------------------------|
G#|-----------------------------------------------------------|
 E|----5-4h5p4-------4---5---4------9-7h9p7-------5---9---7---|
 B|-3-----------0--5---5---5----7------------5--5---5---5-----|
F#|-3-----------0---------------7------------5----------------| x2
 B|-3-----------0---------------7------------5----------------|
   |_______________*___*___*____________________*___*___*__|
   over drive through the hole chorus this time then with the
   continued over drive.... play the following...

c#|--------------------------------------------------------------------------------------|
G#|--------------------------------------------------------------------------------------|
 E|---5-5-5-5-5-5-5-5-7----7-7-7-7-7-7-7-7-9----9-9-9-9-9-9-9-9-10----7-7-7-7-7-7-7-7-9--|
 B|-3--------------------5--------------------7---------------------5--------------------|
F#|-3--------------------5--------------------7---------------------5--------------------|
 B|-3--------------------5--------------------7---------------------5--------------------|      
                              |
2:39 play  this till it fades\|/out, listen to cd and you'll know what I mean 
c#|-------------------------------------------------------------------------------------|
G#|-------------------------------------------------------------------------------------|
 E|---5-5-5-5-5-5-5-5-7----7-7-7-7-7-7-7-7-9----4-4-4-4-4-4-4-4-5----2-2-2-2-2-2-2-2-4--|
 B|-3--------------------5--------------------0--------------------3--------------------|
F#|-3--------------------5--------------------0--------------------3--------------------|
 B|-3--------------------5--------------------0--------------------3--------------------|

fade out  finishes at 3:10.
            
Tabs too difficult? Try these video lessons and learn fast.




comments powered by Disqus
↑ Back to top | Tablatures and chords are parodies/interpretations of the original songs. You may use it for private study, scholarship, research or language learning purposes only