» » »

Parkway Drive, Carrion Bass tabs (ver.2)

Artists:  A B C D E F G H I J K L M N O P Q R S T U V W X Y Z # 

Carrion Bass tabs (ver.2)

Parkway Drive Tabs
 Rating:
3.5/5 (8 votes)
Carrion lessons Tabs too difficult? Try these video lessons and learn fast
1
                -------------------------------------------------------------------------------
			     Carrion - Parkway Drive
-------------------------------------------------------------------------------


Tuning: BEADG

OK I have worked for many months on this tab with my friend. This tab should be 100% 
but the timing might be just a little off. Timing is crucial when playing this song so 
listen to the song and you will get it. We did our best. Enjoy!

G|----------------------------------------------------|
D|----------------------------------------------------|
A|----------------------------------------------------|
E|-----------2----0--------------2----0---------------|
B|-3----0--------------3----0--------------000-0-0----|

G|-------------------------------------------------------------------------|
D|-------------------------------------------------------------------------|
A|-------------------------------------------------------------------------|
E|-------------------------------------------------------------------------|
B|-300-300-300-30-30-30--300-300-300-30-30-30--300-300-300-30-30-30--------|

G|-----------------------------------------------------------------------------|
D|-----------------------------------------------------------------------------|
A|-----------------------------------------------------------------------------|
E|-----------------3-----------------3-----------------3-----------------------|
B|-300-30-30---000--300-30-30---000--300-30-30---000--300-30-30---000----------|

G|-------------------------------------------------------------------------|
D|-------------------------------------------------------------------------|
A|-------------------------------------------------------------------------|
E|-------------------------------------------------------------------------|
B|-300-50-3000-30-30-30--300-50-3000-30-30-30--300-50-3000-30-30-30--------|

G|------------------------------------|
D|------------------------------------|
A|------------------------------------|
E|------------------------------------|
B|-300-50-3000-30-30-30-R-E-S-T-------|

G|-----------------------------------------------------------------------------|
D|-----------------------------------------------------------------------------|
A|-----------------------------------------------------------------------------|
E|------------------2--0--------2--0------------2----0--------------2----0-----|
B|-222222222-3--0--------3--0--------3----0--------------3----0----------------|

G|---------------------------------------------------------------------|
D|---------------------------------------------------------------------|
A|-----------------------------------------------------55-75--4-44-----|
E|-------------------------------------------------------7---7-----5---|
B|-00000--00000--00000--00000--00000--00000--00000---------------------|

G|--------------------------------------------------------------|
D|--------------------------------------------------------------|
A|--------------------------------------------------------------|
E|-----------------------------------------------------55754----|
B|-00000--00000--00000--00000--00000--00000--00000--------------|

G|-------------------------------------|
D|-------------------------------------|
A|-------------------------------------|
E|----------2----0--------------2----0-|
B|-R-E-S-T------------3----0-----------|

G|------------------------------------------------------|
D|------------------------------------------------------|
A|------------------------------------------------------|
E|----0--2--0-----0-----------0--2--0-----0-------------|
B|-3-----------3-----0--2--3-----------3-----0--2--3----|

That's it. Once again listen to the timing and you will get it. Enjoy!


| /  slide up
| \  slide down
| h  hammer-on
| p  pull-off
| ~  vibrato
| +  harmonic
| x  Mute note
===============================================================================
            
Submit corrections

comments powered by Disqus
↑ Back to top | Parkway Drive Bass for Carrion. Lyrics for acoustic guitar and electric guitar. 1 Tablatures and chords are parodies/interpretations of the original songs. You may use it for private study, scholarship, research or language learning purposes only