>
 >
Carrion 1

Carrion 1 Guitar Tabs

Parkway Drive - Carrion 1 chords, tabs, tablatures, lyrics

Guitar lessons | Add/correct | Request | Top 50 tabs Artists:  A B C D E F G H I J K L M N O P Q R S T U V W X Y Z 0-9

Carrion 1 Guitar Tabs – Parkway Drive

CD, Sheet music, Poster

Do you like Carrion 1? Share with your friends now
Bass TabsBass Tabs v2ChordsDrum TabsTabsTabs v2Tabs v3Tabs v4Tabs v5Tabs v6Tabs v7Ukulele
PARKWAY DRIVE - CARRION

An awesome song, Iíve had a few requests for this one.
Still got some bits left to work out, will be up in a few days!

Fans of Parkway Drive would be interested in my side project songs. Have a listen and send a friend request!

Tuning: Drop B

INTRO RIFF (CLEAN)
0:00
C#|---------------------------------------|
G#|---------------------------------------|
E |------5-------4-------9-----9---9---7--|
B |-3-------0----5--7-------5----5---5----|
F#|-3-------0-------7-------5-------------|
B |-3-------0-------7-------5-------------|

C#|---------------------------------------|
G#|---------------------------------------|
E |------5-------4-------9-----9----------|
B |-3-------0----5--7-------5----5--------|
F#|-3-------0-------7-------5-------------|
B |-3-------0-------7-------5-------------|

INTRO/CHORUS RIFF (DIRTY)
0:13
C#|-----------------------------|-----------------------------|
G#|-----------------------------|-----------------------------|
E |----5-4h5p4------4---5---4---|----9-7h9p7------5---9---7---|
B |-3----------0--5---5---5-----|-7----------5--5---5---5-----|
F#|-3----------0----------------|-7----------5----------------|
B |-3----------0----------------|-7----------5----------------|

VERSE RIFF 1
0:25
C#|----------------------------------------|
G#|----------------------------------------|
E |----------------------------------------|
B |----------------------------------------|
F#|-8-----7---8-5-----8---5------7h8p7-----|
B |-0-0-0-0-0-0-0-0-0-0-0-0-0-10-------10--|

VERSE RIFF 2
0:37
C#|-----------------------------|
G#|-----------------------------|
E |-----------------------10----|
B |-----------------------7-----|
F#|-8-----8---8-5---------8-----|
B |-0-0-0-0-0-0-0---0-000-8-----|

C#|-----------------------------|
G#|-----------------------------|
E |-----------------------------|
B |-----------------------------|
F#|-8-----8---8-5---------------|
B |-0-0-0-0-0-0-0---0-000-<8>---|

INTRO/CHORUS RIFF (DIRTY)
1:01
C#|-----------------------------|-----------------------------|
G#|-----------------------------|-----------------------------|
E |----5-4h5p4------4---5---4---|----9-7h9p7------5---9---7---|
B |-3----------0--5---5---5-----|-7----------5--5---5---5-----|
F#|-3----------0----------------|-7----------5----------------|
B |-3----------0----------------|-7----------5----------------|

VERSE RIFF 1
1:14
C#|-----------------------------|
G#|-----------------------------|
E |-----------------------10----|
B |-----------------------7-----|
F#|-8-----8---8-5---------8-----|
B |-0-0-0-0-0-0-0---0-000-8-----|

RIDGE RIFF
1:26
C#|-------------------------------------------------|
G#|-10-10-10-10-10-10-10-10-10-10-10-10-10-10-10-10-|
E |-12-12-12-12-10-10-10-10-9--9--9--9--8--8--8--8--|
B |-------------------------------------------------|
F#|-------------------------------------------------|
B |-------------------------------------------------|





Comments


Popular Parkway Drive tabs & chords
Blue And The Grey Tabs
Boneyards 2 Tabs
Dead Man's Chest Tabs
Flesh Bone And Weakness Tabs
Gimme A D 3 Tabs
Karma Tabs
Picture Perfect Pathetic Up To Lifeless Tabs
Romance Is Dead 3 Tabs
Smoke Em If You Got Em Tabs
Wreckage 3 Tabs


Song lyrics



↑ Back to top | Tablatures and chords are parodies/interpretations of the original songs. You may use it for private study, scholarship, research or language learning purposes only
© 2014 AZChords.com Contact us | Privacy policy | DMCA | Add/correct tabs | Request tabs | Top 50 tabs