» » »

Papa Roach, Life Is A Bullet Tabs (ver.3)

Artists:  A B C D E F G H I J K L M N O P Q R S T U V W X Y Z # 

Life Is A Bullet Tabs (ver.3)

Papa Roach Tabs
Rating:
0/5 (0 votes)
Life Is A Bullet lessons Tabs too difficult? Try these video lessons and learn fast
                Papa Roach
Life is a bullet
Lovehatetragedy
Drop D tuning down 1/2 step

Intro/verse

e---------------------------------------------|-----------|
b---------------------------------------------|-----------|
g-----------5-5-5-5-5-----------7-7-7---------|-7-10-7-10-|
d-----------x-x-x-x-x-----------x-x-x---3-3-3-|-x-x--x-x--|
a-----------3-3-3-3-3-----------5-5-5-0-------|-5-8--5-8--|
D-0-0-0-0-0-----------0-0-0-0-0---------------|-----------|

e-------------------------------------------------|
b-------------------------------------------------|
g-----------7-7-7-------------------5-5-5---------|
d-----------x-x-x---3-3-3-----------x-x-x---2-2-2-|
a-----------5-5-5-0-----------------3-3-3-0-0-0-0-|
D-0-0-0-0-0---------------0-0-0-0-0---------------|

e--------|
b--------|
g--------|
d--------|
a-0-0-0--|
D-0-0-0--|p.m

Pre-chorus

e---------------------------------------------------|
b---------------------------------------------------|
g-------7~~-------7~~\-7-7-7-7-10101010-12-12-10-10-|
d-------x~~-------x~~\-5-5-5-5-8-8-8-8--10-10-10-10-|
a-0-0-0-5~~-0-0-0-5~~\-5-5-5-5-8-8-8-8--10-10-10-10-|
D-0-0-0-----0-0-0------5-5-5-5-8-8-8-8--10-10-10-10-|

Chorus

( x2 )
e----------------------------------------------------------------|-------|
b----------------------------------------------------------------|-------|
g-----------9-10----------9-5------------9-10---------------9-5--|-14-10-|
d-----------x-x-----------x-x------------x-x----------------x-x--|-x--x--|
a-5-5-5-5-5-7-8-7-7-7-7-7-7-3--8-8-8-8-8-7-8-10-10-10-10-10-7-3--|-12-8--|
D-5-5-5-5-5-----7-7-7-7-7------8-8-8-8-8-----10-10-10-10-10------|-------|
          "Life is"   "A bullet"   "The blood stains"  "Will prove it"  
Verse

Bridge x1 Distortion x2 Clean
		   Interlude
e---------------------------|----------------------------------------------|
b---------------------------|----------------------------------------------|
g---------------------------|----------------------------------------------|
d---------------------------|------------------------2-3-3h5p3-3--------3--|
a-0-8-0-7-8-5-0-8-0-7-8-5p3-|-8------------------8-0------------3-0-7-0----|
D-0-----------0-------------|-8---7h8-7-3h5-5--0------------------0--------|
   "Today I feel Blue..."

Ending
e------|
b------|
g------|
d-12/--|
a-12/--|
D-12/--|

Chorus

Pre-chorus ( x2 )

Chorus

By KoRotz
Thanks to Papa Roach courtesy of Dreamworks records
            

comments powered by Disqus
↑ Back to top | Papa Roach Tabs for Life Is A Bullet. Lyrics for acoustic guitar and electric guitar. Tablatures and chords are parodies/interpretations of the original songs. You may use it for private study, scholarship, research or language learning purposes only