>
 >
Life Is A Bullet 5 String

Life Is A Bullet 5 String Bass Tabs

Papa Roach - Life Is A Bullet 5 String chords, tabs, tablatures, lyrics

Guitar lessons | Add/correct | Request | Top 50 tabs Artists:  A B C D E F G H I J K L M N O P Q R S T U V W X Y Z 0-9

Life Is A Bullet 5 String Bass Tabs – Papa Roach

CD, Sheet music, Poster

Do you like Life Is A Bullet 5 String? Share with your friends now
Bass Tabs
Tuning: low to high (B E A D G)



Intro
G|-----|-----|-----|-----|-----|
D|-----|-----|-----|-----|-----|
A|-----|-----|-----|-----|-----|
E|-----|-----|-----|-----|-----|
B|2----|2----|2----|2----|2-2-2|

G|-----------------------------|-------------------------|
D|------9--9--9--9--9-9-99--|------11-11-11-11--------|
A|-----------------------------|------------------7-7-7-7|
E|-----------------------------|-------------------------|
B|2-2-2------------------------|2-2-2--------------------|

G|-----------------------------|-----------------------------|
D|-------9-9-9-99-9-9-9-|------11-11-14-14-11-11-14-14|
A|-----------------------------|-----------------------------|
E|-----------------------------|-----------------------------|
B|2-2-2------------------------|2-2-2------------------------|

G|-----------------------------|-------------------------|
D|------9--9--9--9--9-9-99--|------11-11-11-11--------|
A|-----------------------------|------------------7-7-7-7|
E|-----------------------------|-------------------------|
B|2-2-2------------------------|2-2-2--------------------|

G|-----------------------------|-----------------------------|
D|-------9-9-9-99-9-9-9-|------11-11-14-14-11-11-14-14|
A|-----------------------------|-----------------------------|
E|-----------------------------|-----------------------------|
B|2-2-2------------------------|2-2-2------------------------|


Verse

G|-----------------------------|-------------------------|
D|------9--9--9--9--9-9-99--|------11-11-11-11--------|
A|-----------------------------|------------------7-7-7-7|
E|-----------------------------|-------------------------|
B|2-2-2------------------------|2-2-2--------------------|

G|-----------------------------|-----------------------------|
D|-------9-9-9-99-9-9-9-|------11-11-14-14-11-11-14-14|
A|-----------------------------|-----------------------------|
E|-----------------------------|-----------------------------|
B|2-2-2------------------------|2-2-2------------------------|

G|-----------------------------|-------------------------|
D|------9--9--9--9--9-9-99--|------11-11-11-11--------|
A|-----------------------------|------------------7-7-7-7|
E|-----------------------------|-------------------------|
B|2-2-2------------------------|2-2-2--------------------|

G|-----------------------------|-----------------------------|
D|-------9-9-9-99-9-9-9-|------11-11-14-14-11-11-14-14|
A|-----------------------------|-----------------------------|
E|-----------------------------|-----------------------------|
B|2-2-2------------------------|2-2-2------------------------|


Bridge

G|--------|-----------|--------|--------|--------|
D|--------|----------4|--------|--------|--------|
A|--------|------4-2--|--------|--------|--------|
E|--------|-----------|2-2-2-2-|5-5-5-5-|7-7-7-7-|
B|2-2-2-2-|2-2-2------|--------|-----------------|


Chorus

G|---------|---------|---------|---------|
D|---------|---------|---------|---------|
A|------6-7|------7--|------6-7|------7--|
E|2-2-2----|4-4-4---7|5-5-5----|7-7-7---7|
B|---------|---------|---------|---------|

G|---------|---------|---------|------------|
D|---------|---------|---------|------------|
A|------6-7|------6-7|------6-7|-------11-7-|
E|2-2-2----|4-4-4----|5-5-5----|7-7-7-------|
B|---------|---------|---------|------------|


Bridge

G|-----------------------------|-------------------------|
D|------9--9--9--9--9-9-99--|------11-11-11-11--------|
A|-----------------------------|------------------7-7-7-7|
E|-----------------------------|-------------------------|
B|2-2-2------------------------|2-2-2--------------------|

G|-----------------------------|-----------------------------|
D|-------9-9-9-99-9-9-9-|------11-11-14-14-11-11-14-14|
A|-----------------------------|-----------------------------|
E|-----------------------------|-----------------------------|
B|2-2-2------------------------|2-2-2------------------------|

then:
play the Verse
the first bridge 
and the Chorus again
then to next part

Interlude

G|-----------| x8
D|-----------|
A|--7-4-6-7-4|
E|-----------|
B|2----------|

G|-----|-------------|-----|----------|-------|
D|-----|-------------|-----|----------|-------|
A|-----|-------------|-----|-7/9-7-4--|-------|
E|5----|-4h5p4-2h4p0-|-----|----------|--7-7--|
B|-----|-------------|2----|---------2|-------|

G|-------9-8--|----------------|-------9-8--|-----------------| x4
D|-----------9|9h11p9----------|----------9-|9h11p------------|
A|--4-7-------|------7-7h9p7---|--4-7-------|--------9--------|
E|------------|--------------7/|------------|----------7-7-7-7|
B|2-----------|----------------|2-----------|-----------------|

G|------------|------------|------------|----------------|----|
D|------------|------------|------------|----------------|----|
A|------------|------------|------------|----------------|----|
E|2-2-2-2-----|4-4-4-4-----|5-5-5-5-----|7-7-7-7-7-------|7\--|
B|------------|------------|------------|----------------|----|

then:
play the Bridge two times
and the Chorus again
then the next part

Outro

G|----------------6-6-6-6-6-6-6-6|----------------9-9-9-9-9-9-9-9|
D|-------------------------------|-------------------------------|
A|-------------------------------|-------------------------------|
E|-------------------------------|-------------------------------|
B|2-2-2-2-2-2-2-2----------------|2-2-2-2-2-2-2-2----------------|

G|----------------6-6-6-6-6-6-6-6|----------------9-9-9-9-9-9-9-9|
D|-------------------------------|-------------------------------|
A|-------------------------------|-------------------------------|
E|2-2-2-2-2-2-2-2----------------|4-4-4-4-4-4-4-4----------------|
B|-------------------------------|-------------------------------|

G|----------------11-11-11-11-11-11-11-11|-----|
D|---------------------------------------|-----|
A|---------------------------------------|-----|
E|5-5-5-5-5-5-5-5------------------------|-----|
B|---------------------------------------|14/2-|





Comments


Popular Papa Roach tabs & chords
Broken Home - Papa Roach Bass Tabs
Days Of War Bass Tabs
My Bad Side Bass Tabs
What Do You Do Bass Tabs
Decompression Period- Tabs
Getting Away With Murder 1 Tabs
Legacy Tabs
Revenge 2 Tabs
Tight Rope 1 Tabs
Where Did The Angels Go Tabs


Song lyrics



↑ Back to top | Tablatures and chords are parodies/interpretations of the original songs. You may use it for private study, scholarship, research or language learning purposes only
© 2014 AZChords.com Contact us | Privacy policy | DMCA | Add/correct tabs | Request tabs | Top 50 tabs