>
 >
Life Is A Bullet

Life Is A Bullet Guitar Tabs

Papa Roach - Life Is A Bullet chords, tabs, tablatures, lyrics

Guitar lessons | Add/correct | Request | Top 50 tabs Artists:  A B C D E F G H I J K L M N O P Q R S T U V W X Y Z 0-9

Life Is A Bullet Guitar Tabs – Papa Roach

CD, Sheet music, Poster

Do you like Life Is A Bullet? Share with your friends now
Bass TabsTabsTabs v2Tabs v3Tabs v4Tabs v5
Tuning-----------( Db  Ab  Db Gb Bb Eb )-------------low to high

Intro(light part)
E----------------------------------------------------------------------
B----------------------------------------------------------------------
G----------------------------------------------------------------------
D------------10-10-10-10-10-10-10-10------------12-12-12---------------
A--0--0-0--------------------------------0--0-0----------8-8-8---------
E--0--0-0--------------------------------0--0-0------------------------

E----------------------------------------------------------------------
B----------------------------------------------------------------------
G----------------------------------------------------------------------
D------------10-10-10-10-10-10-10-10--------------12-12-15-12-12-15----
A--0--0-0----------------------------------0--0-0----------------------
E--0--0-0----------------------------------0--0-0----------------------

E----------------------------------------------------------------------
B----------------------------------------------------------------------
G----------------------------------------------------------------------
D------------10-10-10-10-10-10-10-10------------12-12-12---------------
A--0--0-0--------------------------------0--0-0----------8-8-8---------
E--0--0-0--------------------------------0--0-0------------------------

E----------------------------------------------------------------------
B----------------------------------------------------------------------
G----------------------------------------------------------------------
D------------10-10-10--------------------------------------------------
A--0--0-0---------------7-7-7------------------------------------------
E--0--0-0--------------------------------------------------------------

Heavy Part of the intro
E----------------------------------------------------------------------
B----------------------------------------------------------------------
G----------------------------------------------------------------------
D--0--0-0--10-10-10-10-10-10--0--0-0--12-12-12-3-3-3-------------------
A--0--0-0--10-10-10-10-10-10--0--0-0--12-12-12-3-3-3-------------------
E--0--0-0--10-10-10-10-10-10--0--0-0--12-12-12-3-3-3-------------------

E----------------------------------------------------------------------
B----------------------------------------------------------------------
G----------------------------------------------------------------------
D--0--0-0--10-10-10-10-10-10--0--0-0--12-12-15-12-12-15----------------
A--0--0-0--10-10-10-10-10-10--0--0-0--12-12-15-12-12-15----------------
E--0--0-0--10-10-10-10-10-10--0--0-0--12-12-15-12-12-15----------------

E----------------------------------------------------------------------
B----------------------------------------------------------------------
G----------------------------------------------------------------------
D--0--0-0--10-10-10-10-10-10--0--0-0--12-12-12-3-3-3-------------------
A--0--0-0--10-10-10-10-10-10--0--0-0--12-12-12-3-3-3-------------------
E--0--0-0--10-10-10-10-10-10--0--0-0--12-12-12-3-3-3-------------------

E----------------------------------------------------------------------
B----------------------------------------------------------------------
G----------------------------------------------------------------------
D--0--0-0--10-10-10-2-2-2--0--0-0--12-12-15-12-12-15-------------------
A--0--0-0--10-10-10-2-2-2--0--0-0--12-12-15-12-12-15-------------------
E--0--0-0--10-10-10-2-2-2--0--0-0--12-12-15-12-12-15-------------------


For the verse just play the lighter part of the intro.

Pre Chorus
E----------------------------------------------------------------------
B----------------------------------------------------------------------
G---------7------------------------------------------------------------
D--0--0-0-7-0--0-0--15/--5--5-5--8--8-8-10-10-10-10-10-----------------
A--0--0-0-5-0--0-0--15/--5--5-5--8--8-8-8--10-10-10-10-----------------
E--0--0-0---0--0-0--15/--5--5-5--8--8-8-8--10-10-10-10-----------------

Chorus
E----------------------------------------------------------------------
B----------------------------------------------------------------------
G----------9-10---------9------------9-10-------------9----------------
D--5-5-5-5-x-x--7-7-7-7-x-10-8-8-8-8-x-x--10-10-10-10-x-10-------------
A--5-5-5-5-7-8--7-7-7-7-7-10-8-8-8-8-7-8--10-10-10-10-7-10-------------
E--5-5-5-5------7-7-7-7---10-8-8-8-8------10-10-10-10---10-------------

E----------------------------------------------------------------------
B----------------------------------------------------------------------
G----------9-10---------9-10---------9-10-------------14-10------------
D--5-5-5-5-x-x--7-7-7-7-x-x--8-8-8-8-x-x--10-10-10-10-x--x-------------
A--5-5-5-5-7-8--7-7-7-7-7-8--8-8-8-8-7-8--10-10-10-10-12-8-------------
E--5-5-5-5------7-7-7-7------8-8-8-8------10-10-10-10------------------

After 2nd chorus
E--------------------------------
B--------------------------------
G--------------------------------play this 4 times
D--------------------------------
A---8---7--8--5---8---7--8--5p0--
E-0---7---------0---7------------

E----------------------------------------------------------------------
B----------------------------------------------------------------------
G------------------------------9-----10/12/10----------10--------------
D--8-----7h8p7---3h5p3-------7---x-x-x-/x-/x--0------7----x-10-10------
A--8-----7h8p7---3h5p3-----8-----x-x-8-/10/8--0----8------x-10-10------
E--8-----7h8p7---3h5p3---0-------x-x----------0--0--------x-10-10------

E----------------------------------------------------------------------
B----------------------------------------------------------------------
G--------9-----------------------10------------------------------------
D-----7------------------------7---------------------------------------
A---8------------------------8-----------------------------------------
E-0------------------------0-------------------------------------------

E----------------------------------------------------------------------
B----------------------------------------------------------------------
G----------------------------------------------------------------------
D----------------------------------------------------------------------
A---8---7--8--5---8---7--8--5----8---7--8--5---8---7--8--5-------------
E-0---7---------0---7----------5---5---------5---5---------------------

E------------------------------
B------------------------------
G------------------------------
D------------------------------
A---8---7--8--5---8---7--8--5--
E-7---7---------8---8----------

Outro
E----------------------------------------------------------------------
B----------------------------------------------------------------------
G-----------------7-7-7-7-7-7--------------------9-9-9-9-9-9-----------
D-5-5-5-5-5-5-5-5-x-x-x-x-x-x--5-5-5-5-5-5-5-5-5-x-x-x-x-x-x-----------
A-5-5-5-5-5-5-5-5-5-5-5-5-5-5--5-5-5-5-5-5-5-5-5-7-7-7-7-7-7-----------
E-5-5-5-5-5-5-5-5--------------5-5-5-5-5-5-5-5-5-----------------------
  . . . . . . . .              . . . . . . . . .

E----------------------------------------------------------------------
B----------------------------------------------------------------------
G-----------------9-9-9-9-9-9--------------------10-10-10-10-10-10-----
D-7-7-7-7-7-7-7-7-x-x-x-x-x-x--8-8-8-8-8-8-8-8-8-x--x--x--x--x--x------
A-7-7-7-7-7-7-7-7-7-7-7-7-7-7--8-8-8-8-8-8-8-8-8-8--8--8--8--8--8------
E-7-7-7-7-7-7-7-7--------------8-8-8-8-8-8-8-8-8-----------------------
  . . . . . . . .              . . . . . . . . .

E-----------------------------------------------------------------
B-----------------------------------------------------------------
G--------------------------12-12-12-12-12-12-12-12-12-12-12-------
D-10-10-10-10-10-10-10-10--x--x--x--x--x--x--x--x--x--x--x---10/--
A-10-10-10-10-10-10-10-10--10-10-10-10-10-10-10-10-10-10-10--10/--
E-10-10-10-10-10-10-10-10------------------------------------10/--
  .  .  .  .  .  .  .  .

Thanks for looking at the tab and i hope you find it helpful.





Comments


Popular Papa Roach tabs & chords
Blood Empty Promises 2 Bass Tabs
Born With Nothing Die With Everything Bass Tabs
Harder Than A Coffin Nail Bass Tabs
My Heart Is A Fist 2 Bass Tabs
Reckless Chords
Time Is Running Out Chords
Between Angels And Insects 9 Tabs
Code Of Energy Tabs
Done With You 2 Tabs
Tyranny Of Normality Tabs


Song lyrics



↑ Back to top | Tablatures and chords are parodies/interpretations of the original songs. You may use it for private study, scholarship, research or language learning purposes only
© 2014 AZChords.com Contact us | Privacy policy | DMCA | Add/correct tabs | Request tabs | Top 50 tabs