» » »

Last Resorts Tabs (ver.3)

Artists:  A B C D E F G H I J K L M N O P Q R S T U V W X Y Z # 

Last Resorts Tabs (ver.3)

Papa Roach
Rating:
0/5 (0 votes)

Hard to play? Try these video lessons and learn fast.
                Drop D tuning hope you like it

-9-9-----7-7----5-5----4-4----7-7---------------------------------------------
-7-7-----5-5----3-3----2-2----5-5---------------------------------------------
-9-9-----7-7----5-5----4-4----7-7---------------------------------------------
                                                                              

-----------9--------------------9--------------------9-------------------9----
-7-10-9-10---10-9-10----10-9-10---10-9-10----10-9-10---10-9-10---10-9-10------
---------------------12-------------------10-------------------9--------------
                                                                              

-10-9-10----------------------------------------------------------------------
                                                                              

------------------------------------------------11-11-11-11-12-12-12-12-14----
-14-14-14-14-14-14-14-0-10-10-10-10-10-10-10-0--------------------------------
-14-14-14-14-14-14-14-0-10-10-10-10-10-10-10-0---9--9--9--9-10-10-10-10-12----
-14-14-14-14-14-14-14-0-10-10-10-10-10-10-10-0--------------------------------
                                                                              

-14-14-14-11-11-11------------------------------------------------------------
-12-12-12--9--9--9------------------------------------------------------------
                                                                              

-----------------------------------------------11-------12----14----11--------
-14-14-14-14-14-14-14-0-10-10-10-10-10-10-10-0--------------------------------
-14-14-14-14-14-14-14-0-10-10-10-10-10-10-10-0-9--------10----12-----9--------
-14-14-14-14-14-14-14-0-10-10-10-10-10-10-10-0----0-0-0----00----0-0---0-0----
                                                                              

----14-14-14-14-14-14-14---10-10-10-10-10-10-10---5-5-5-5-5-5-5---4-4-4-4-4---
-0--14-14-14-14-14-14-14-0-10-10-10-10-10-10-10-0-5-5-5-5-5-5-5-0-2-2-2-2-2---
-0--14-14-14-14-14-14-14-0-10-10-10-10-10-10-10-0-5-5-5-5-5-5-5-0-------------
                                                                              

-4-4--------------------------------------------------------------------------
-4-4--------------------------------------------------------------------------
-2-2--------------------------------------------------------------------------
     exact rhythem not shown                                                  

--9--9--9-x--5-5-5-x--5-5-5-x-4-4-4-------------------------------------------
--7--7--7-x--5-5-5-x--3-3-3-x-2-2-2-------------------------------------------
--9--9--9-x--5-5-5-x--5-5-5-x-4-4-4-------------------------------------------
            
Hard to play? Try these video lessons and learn fast. | Correct




comments powered by Disqus
↑ Back to top | Tablatures and chords are parodies/interpretations of the original songs. You may use it for private study, scholarship, research or language learning purposes only