» » »

Last Resorts Bass tabs (ver.1)

Artists:  A B C D E F G H I J K L M N O P Q R S T U V W X Y Z # 

Last Resorts Bass tabs (ver.1)

Papa Roach
Rating:
0/5 (0 votes)

Hard to play? Try these video lessons and learn fast.
                Standard Tunning- E,A,D,G

Verse
G|----------------------------------
D|----------------------------------
A|----------------------------------
E|-7-7---5-5---3-3---2-2--5-5--8-8--

Pre-Chorus
G|------------------------------------
D|------------------------------------
A|------------------------------------
E|-7-7---5-5---3-3---2-2-2-2-5-5-5-5--

Chorus1
G|------------------------------------------------------------------
D|------------------------------------------------------------------
A|-----------------3-3-3-3-3-3-3-3----------------------------------
E|-0-0-0-0-0-0-0-0-----------------3-3-3-3-3-3-3-3-3-3-3-3-3-3-3-3--

G|--------------------------------------------------------------------------
D|--------------------------------------------------------------------------
A|-----------------3-3-3-3-3-3-3-3------------------------------------------
E|-0-0-0-0-0-0-0-0-----------------3-3-3-3-3-3-3-3-12-12-12-12-12-12-12-12--

Fill
G|------------------------------------
D|------------------------------------
A|-----------------5------------------
E|-7-7---0-5-5-5-5---5-3-3---2-2-5-5--

Chorus2
G|------------------------------------------------------------------
D|------------------------------------------------------------------
A|-----------------3-3-3-3-3-3-3-3----------------------------------
E|-0-0-0-0-0-0-0-0-----------------3-3-3-3-3-3-3-3-3-3-3-3-3-3-3-3--

G|--------------------------------------------------------------------------
D|--------------------------------------------------------------------------
A|-----------------3-3-3-3-3-3-3-3------------------------------------------
E|-0-0-0-0-0-0-0-0-----------------3-3-3-3-3-3-3-3-12-12-12-12-12-12-12-12--
                                                                    
G|------------------------------------------------------------------
D|-2-2-2-2-2-2-2-2--------------------------------------------------
A|-----------------3-3-3-3-3-3-3-3-----------------2-2-2-2-2-2-2-2--
E|---------------------------------3-3-3-3-3-3-3-3------------------

Outro
G|------------------------------------------------------------------
D|-2-2-2-2-2-2-2-2--------------------------------------------------
A|-----------------3-3-3-3-3-3-3-3----------------------------------
E|---------------------------------0-0-0-0-0-0-0-0-3-3-3-3-3-3-3-3--

G|------------------------------------------------------------------
D|------------------------------------------------------------------
A|------------------------------------------------------------------
E|-5-5-5-5-5-5-5-5-3-3-3-3-3-3-3-3-3-3-3-3-3-3-3-3-3-3-3-3-3-3-3-3--
                                                                    
G|------------------------------------------------------------------
D|-2-2-2-2-2-2-2-2--------------------------------------------------
A|-----------------3-3-3-3-3-3-3-3-----------------2-2-2-2-2-2-2-2--
E|---------------------------------3-3-3-3-3-3-3-3------------------

G|----------------------------------
D|----------------------------------
A|-7-7-7-7-7-7-7-7-7-7-7-7-7-7-7-7\-
E|----------------------------------

Thats all folks, Shouldnt have any problems Have fun.
Please rate this tab, Thanks.

Song Structure:
Verse x5
Pre-Chorus
Chorus1 x2
Verse x2
Fill
Verse x1
Pre-Chorus
Chorus2
Verse x5
Pre-Chorus
Chorus2
Outro
            
Hard to play? Try these video lessons and learn fast. | Correct




comments powered by Disqus
↑ Back to top | Tablatures and chords are parodies/interpretations of the original songs. You may use it for private study, scholarship, research or language learning purposes only