» » »

Papa Roach, Last Resorts Tabs (ver.2)

Artists:  A B C D E F G H I J K L M N O P Q R S T U V W X Y Z # 

Last Resorts Tabs (ver.2)

Papa Roach Tabs
 Rating:
4/5 (4 votes)
Last Resorts lessons Tabs too difficult? Try these video lessons and learn fast
1
                This tab is fairly acurate, i'd say at least 90% if not more
But at least its a bit better than the last one.  For the
timing just listen to the song, its pretty cool, email
me for comments, thanks, :)
----------------------------------------------------------
----------------------------------------------------------
----------------------------------------------------------
-9-9--7-7--5-5--4-4--7-7--5-5---------------------------------
-7-7--5-5--3-3--2-2--5-5--3-3-------------------------------
-7-7--5-5--3-3--2-2--5-5--3-3-------------------------------
 Intro chords/main chords                                                     

-|---------------------------------------------------------------
-|x--------------------------------------------------------------
-|---------------------------------------------------------------
-|x----------9--------------------9-------------------9----------
-|-7-10-9-10---10-9-10----10-9-10---10-9-10---10-9-10---10-9-10--
-|---------------------10-------------------8--------------------
 Intro Riff/main riff sometimes palm muted                                    

-------------------------|---------------------------------------
-------------------------|---------------------------------------
------------------------x|---------------------------------------
-------------------------|---------------------------------------
----10-9-10---10-9-10---x|---------------------------------------
-7---------10------------|---------------------------------------
repeat a whole bunch of times through out the song  

-------------------------------------------------------|---------
-------------------------------------------------------|---------
---------------------9-9-9--11-11-11-12-12-12--7-7-7---|---------
-9-9-9-9---5-5-5-5-------------------------------------|---------
-7-7-7-7---3-3-3-3---7-7-7--9--9--9--10-10-10--5-5-5---|---------
-7-7-7-7---3-3-3-3-------------------------------------|---------
 chorus-repeat 2x                                                             

-9----5----7----4------------------------------------------------
-7----3----5----2------------------------------------------------
-7----3----5----2------------------------------------------------
 Bridge and outro chords
            
Submit corrections

comments powered by Disqus
↑ Back to top | Papa Roach Tabs for Last Resorts. Lyrics for acoustic guitar and electric guitar. 1 Tablatures and chords are parodies/interpretations of the original songs. You may use it for private study, scholarship, research or language learning purposes only