» » »

Candy Bass tabs (ver.2)

Artists:  A B C D E F G H I J K L M N O P Q R S T U V W X Y Z # 

Candy Bass tabs (ver.2)

Paolo Nutini
Rating:
0/5 (0 votes)

Hard to play? Try these video lessons and learn fast.
                Verse1
G-------------------------------------------------------------|
D-------------------------------------------------------------|
A------------------------7--7-5--------5--9-----5--0--5--0----|
E---5--0--5-5-7-5-----7---------7-5-3--------3----------------|
B----------------8-5------------------------------------------|


Chorus x2
G||---------------------------------------------------------------------||
D||----------------------------------5--0--5----------------------------||
A||-----------------------7--7-5-7-8------------------5--0--5--7-5------||
E||---5--0--5-5-7-5-----7---------------------3-5-7-8--------------8-7--||
B||-----------------8-5-------------------------------------------------||

Verse2 x2
G||---------------------------------------------------------------------||
D||----------------------------------5--0--5--7-5-----------------------||
A||-----------------------7--7-5-7-8--------------8-7-5--0--5--7-5------||
E||---5--0--5-5-7-5-----7------------------------------------------8-7--||
B||-----------------8-5-------------------------------------------------||

Chorus x2
Verse2 x2

Then, there's a sort of Special, after the vocal part... At first, notes are just 
hinted, after there's an unclear sequence... That's like it sounds to me:

Special: "I'll be there..."
G||---------------------------------||
D||---------------------------------||
A||-------------------------------7-||
E||---8---3---8---0---8---3---8-----||
B||---------------------------------||

.. then drums goes faster.... Repeat 'till the song ends....
G||----------------------------------------------------------------------||
D||----------------------------------------------------------------------||
A||----------------------------------------------------5555555555555555--||
E||-------------------7777777777777777-----------------------------------||
B|---8888888888888888-----------------8888888888888888-------------------||

Hope it will be helpful
            
Hard to play? Try these video lessons and learn fast. | Correct




comments powered by Disqus
↑ Back to top | Tablatures and chords are parodies/interpretations of the original songs. You may use it for private study, scholarship, research or language learning purposes only