>
 >
Jenny Don't Be Hasty

Jenny Don't Be Hasty Guitar Tabs

Paolo Nutini - Jenny Don't Be Hasty chords, tabs, tablatures, lyrics

Guitar lessons | Add/correct | Request | Top 50 tabs Artists:  A B C D E F G H I J K L M N O P Q R S T U V W X Y Z 0-9

Jenny Don't Be Hasty Guitar Tabs – Paolo Nutini

CD, Sheet music, Poster

Do you like Jenny Don't Be Hasty? Share with your friends now
Bass TabsChordsChords v2Chords v3TabsTabs v2Tabs v3
To be Honest I don't know what all of the chords are named off-hand, but can put 
them up if anybody is desperate to know. . . 


I think this tab is pretty much there . . . . But any suggestions on improving it 
will be appreciated. .  . . enjoy!

~INTRO~
e|-------------------------------------------||
B|---------------------------------22222222--|| {Palm muted to start - ease
G|-------------------------2222222222222222--||  it in!}
D|-----------------444444444444444444444444--||
A|---------44444444444444444444444444444444--||
E|-2222222222222222222222222222222222222222--||

~VERSE~
e|-------------------2--x--2---2--x--2-----|
B|-2--x--5---5---5---3--x--2h3-3--x--2h4---|
G|-2--x--6 h 7---6---2--x--2---2--x--2-----|
D|-4--x--7---7---7---4--x--2h4-4--x--2h3---|
A|-4--x-(0)-(0)-(0)--2--x--2---2--x--2-----|
E|(2)--------------------------------------|

e|-------------------------|
B|-2-2---------------------|
G|-2-2-(2)--2--------------|
D|-2-2--2---4--------------|
A|-0-0--2---4-------0------| When leading into chorus don't play the picked 
E|------0--(2)--0-2---2-0--| notes on E & a strings. Stay on the ||- chord.
                                                                 ||-
~CHORUS~                                                         ||2
e|----------------------------------------2-2-x-2-2--|           ||4
B|--5-x-5--5-x-5--5-x-5--5--5--2-x-2--2-x-3-3-x-3-3--|           ||4 
G|--6-x-6--6-x-6--6-x-6--6--7--2-x-2--2-x-2-2-x-2-2--|           |(2) 
D|--7-x-7--7-x-7--7-x-7--7--7--4-x-4--4-x-0-0-x-0-0--|
A|--7-x-7--7-x-7--7-x-7--7-(0)-4-x-4--4-x------------|
E|-(5)x(5)(5)x(5)(5)x(5)(5)---(2)x(2)(2)x------------|

~2nd & 3rd CHORUS ENDING'S~
e|------------(0)(0)-(0)(0)x-2-2-x-2-2-x-2-2-x-2-2-x-0----|
B|--5-x-5--5-x-0--0-x-0--0-x-3-3-x-3-3-x-3-3-x-3-3-x-0----|
G|--6-x-6--6-x-1--1-x-1--1-x-4-4-x-4-4-x-2-2-x-2-2-x-1----|
D|--7-x-7--7-x-2--2-x-2--2-x-4-4-x-4-4-x-0-0-x-0-0-x-2----|
A|--7-x-7--7-x-2--2-x-2--2-x-2-2-x-2-2-x-----x-----x-2----|
E|-(5)x(5)(5)x(0)(0)x(0)(0)x-----x-----x-----x---=-x-0----|

so listen along and you'll get there . . . . .

Thanks .. ..





Comments


Popular Paolo Nutini tabs & chords
Pencil Full Of Lead Bass Tabs
10/10 Chords
Jenny Don't Be Hasty Chords
Jenny Dont Be Hasty 5 Chords
Keep Rolling Chords
These Streets 2 Chords
Worried Man Chords
Jenny Don't Be Hasty 1 Tabs
Coming Up Easy Ukulele
Love God Ukulele


Song lyrics



↑ Back to top | Tablatures and chords are parodies/interpretations of the original songs. You may use it for private study, scholarship, research or language learning purposes only
© 2014 AZChords.com Contact us | Privacy policy | DMCA | Add/correct tabs | Request tabs | Top 50 tabs