» » »

Paolo Nutini, These Streets Tabs (ver.1)

Artists:  A B C D E F G H I J K L M N O P Q R S T U V W X Y Z # 

These Streets Tabs (ver.1)

Paolo Nutini Tabs
 Rating:
4/5 (4 votes)
These Streets lessons Tabs too difficult? Try these video lessons and learn fast
1
                			     SONG NAME - Band Name

This is how i finger pick this song, hope you find it helpful. Please comment and rate!

Tuning: Standard, add a capo if you want :)
   D                     F#m
e|-----2--------------------2-------------------------------|
B|-----3---3----------------2---2---------------------------|
G|---2---2---2------------2---2---2-------------------------|
D|-0--------------------------------------------------------|
A|----------------------4-----------------------------------|
E|----------------------------------------------------------|
   G                     A
e|-------3--------------------0-----------------------------|
B|-------3---3----------------2---2-------------------------|
G|-----0---0---0------------2---2---2-----------------------|
D|-----------------------2----------------------------------|
A|---2------------------------------------------------------|
E|----------------------------------------------------------|

As for the bit that goes....:


[Bm7] 
Life is good, and the girls are gorgeous,
[G] 
Suddenly the air smells much greener now
[Bm7] 
And I'm walking around with a half pack of cigarettes
[A] 
Searching for the change I've lost somehow

..... I just strum that bit :)



Please comment and rate, thanks
            
Submit corrections

comments powered by Disqus
↑ Back to top | Paolo Nutini Tabs for These Streets. Lyrics for acoustic guitar and electric guitar. 1 Tablatures and chords are parodies/interpretations of the original songs. You may use it for private study, scholarship, research or language learning purposes only