» » »

Paolo Nutini, Candy Tabs (ver.1)

Artists:  A B C D E F G H I J K L M N O P Q R S T U V W X Y Z # 

Candy Tabs (ver.1)

Paolo Nutini Tabs
 Rating:
4.3/5 (6 votes)
Candy lessons Tabs too difficult? Try these video lessons and learn fast
1
                -----------------------------------------------------------------------------
                             Paolo Nutini - Candy
-----------------------------------------------------------------------------


Tuning: Standard

Hey this is for the SECOND GUITAR in Paolo Nutini - Candy.
Capo on the 5th fret

2nd GUITAR:

Chords:
Em
Bm
D
A7



Intro: Em     Bm

      Em
I was perched outside in the pouring rain
Bm
Trying to make myself a sail
          D
Then I'll float to you my darlin'
         A7
With the evening on my tail
                 Em
Although not the most honest means of travel
   Bm
It gets me there nonetheless
      D
I'm a heartless man at worst, babe
      A7
And a helpless one at best

             Em
Darling I'll bathe your skin
          Bm
I'll even wash your clothes
             D                   A7
Just give me some candy, before I Do
                 Em
Oh, darling I'll kiss your eyes
                 Bm
And lay you down on your rug
             D
Just give me some candy
        A7
After my heart


(For The Next Verse)

Oh I'm often false explaining.....


      Em             Bm              D               A7

e|----0---0---0---0---2---2---2---2---2-0h2---2---2---0---0---0---0----------|
B|---0-0-0-0-0-0-0-0-3-3-3-3-3-3-3-3-3-----3-3-3-3-3-2-2-2-2-2-2-2-2---------|
D|--0---0---0---0---4---4---4---4---2-------2---2---0---0---0---0------------|
D|---------------------------------------------------------------------------|
A|---------------------------------------------------------------------------|
E|---------------------------------------------------------------------------|

     Em             Bm               D               A7

e|----0---0---0---0---2---2---2---2---2-0h2---2---2---0---0---0---0----------|
B|---0-0-0-0-0-0-0-0-3-3-3-3-3-3-3-3-3-----3-3-3-3-3-2-2-2-2-2-2-2-2---------|
D|--0---0---0---0---4---4---4---4---2-------2---2---0---0---0---0------------|
D|---------------------------------------------------------------------------|
A|---------------------------------------------------------------------------|
E|---------------------------------------------------------------------------|


In the rough...

             Em
Darling I'll bathe your skin
          Bm
I'll even wash your clothes
             D                   A7
Just give me some candy, before I Do
                 Em
Oh, darling I'll kiss your eyes
                 Bm
And lay you down on your rug
             D
Just give me some candy
        A7
After my heart


Instrumental: Em Bm

  D                             A7
I know that there´re writings on the wall
                 Em (one downstroke)
But Darling I'll bathe your skin
          Bm (one downstroke)
I'll even wash your clothes
Just give me some candy
After my heart


       Oh........ for..

e|---------------5----2----------------|
B|----------3-------------3------------|
G|-----4-----------------------2-------|
D|-------------------------------------|
A|-------------------------------------|
E|-------------------------------------|

       Oh........ for..

e|---------------5----2----------------|
B|----------3-------------3------------|
G|-----4-----------------------2-------|
D|-------------------------------------|
A|-------------------------------------|
E|-------------------------------------|

I'll...                           For..

e|----------5-------5------5-----5----2------2------2-----2---------------------|
B|-------3------3------3------3----------3------3------3------3-----------------|
G|---4-------4------4-------4---------------4------4------4------4--------------|
D|------------------------------------------------------------------------------|
A|------------------------------------------------------------------------------|
E|------------------------------------------------------------------------------|

I'll...                           For..

e|----------5-------5------5-----5----2------2------2-----2---------------------|
B|-------3------3------3------3----------3------3------3------3-----------------|
G|---4-------4------4-------4---------------4------4------4------4--------------|
D|------------------------------------------------------------------------------|
A|------------------------------------------------------------------------------|
E|------------------------------------------------------------------------------|

I'll...                           For..

e|----------5-------5------5-----5----2------2------2-----2---------------------|
B|-------3------3------3------3----------3------3------3------3-----------------|
G|---4-------4------4-------4---------------4------4------4------4--------------|
D|------------------------------------------------------------------------------|
A|------------------------------------------------------------------------------|
E|------------------------------------------------------------------------------|

I'll...                           For..

e|----------5-------5------5-----5----2------2------2-----2---------------------|
B|-------3------3------3------3----------3------3------3------3-----------------|
G|---4-------4------4-------4---------------4------4------4------4--------------|
D|------------------------------------------------------------------------------|
A|------------------------------------------------------------------------------|
E|------------------------------------------------------------------------------|

I'll...                           For..

e|----------5-------5------5-----5----2------2------2-----2---------------------|
B|-------3------3------3------3----------3------3------3------3-----------------|
G|---4-------4------4-------4---------------4------4------4------4--------------|
D|------------------------------------------------------------------------------|
A|------------------------------------------------------------------------------|
E|------------------------------------------------------------------------------|

If you have any questions be sure to Email me. :)
I'm 99% sure that this is right!


Mickiel




************************************

| /   slide up
| \   slide down
| h   hammer-on
| p   pull-off

************************************
            
Submit corrections

comments powered by Disqus
↑ Back to top | Paolo Nutini Tabs for Candy. Lyrics for acoustic guitar and electric guitar. 1 Tablatures and chords are parodies/interpretations of the original songs. You may use it for private study, scholarship, research or language learning purposes only