» » »

Pantera, Uplift Tabs (ver.1)

Artists:  A B C D E F G H I J K L M N O P Q R S T U V W X Y Z # 

Uplift Tabs (ver.1)

Pantera Tabs
 Rating:
4/5 (4 votes)
Uplift lessons Tabs too difficult? Try these video lessons and learn fast
                Artist-Pantera
Album-Reinventing The Steel
Tuning-D A D G B E
  4/4
   Gtr I
|--------------|--------------|--------------|-------------------|-|
|--------------|--------------|--------------|-------------------|-|
|--------------|--------------|--------------|-------------------|-|
|--------------|--------------|--------------|-------------------|-|
|--------------|--------------|--------------|-------------------|-|
|-3p0-3p0-8p5--|-3p0-3p0-8p5--|-3p0-3p0-8p5--|-0-5p0-4p0-3p0-1p0-|-|


  4/4
   Gtr I
|--------------|--------------|--------------|-------------------|-|
|--------------|--------------|--------------|-------------------|-|
|--------------|--------------|--------------|-------------------|-|
|--------------|--------------|--------------|-------------------|-|
|--------------|--------------|--------------|-------------------|-|
|-3p0-3p0-8p5--|-3p0-3p0-8p5--|-3p0-3p0-8p5--|-0-5p0-4p0-3p0-1p0-|-|


  4/4
   Gtr I
|--------------|--------------|--------------|-------------------|-|
|--------------|--------------|--------------|-------------------|-|
|--------------|--------------|--------------|-------------------|-|
|--------------|--------------|--------------|-------------------|-|
|--------------|--------------|--------------|-------------------|-|
|-3p0-3p0-8p5--|-3p0-3p0-8p5--|-3p0-3p0-8p5--|-0-5p0-4p0-3p0-1p0-|-|


  4/4
   Gtr I
|-------------|-------------|-------------|
|-------------|-------------|-------------|
|-------------|-------------|-------------|
|-------------|-------------|-------------|
|-------------|-------------|-------------|
|-3p0-3p0-8p5-|-3p0-3p0-8p5-|-3p0-3p0-8p5-|


|-------------------|---------------|-|
|-------------------|---------------|-|
|-------------------|---------------|-|
|-------------------|---------------|-|
|-------------------|-7-6-5--3-4-5--|-|
|-0-5p0-4p0-3p0-1p0-|-7S6S5--3S4S5--|-|


|-----------|-----------|---------|-------------------|--------------|
|-----------|-----------|---------|-------------------|--------------|
|-----------|-----------|---------|-------------------|--------------|
|-----------|-----------|---------|-------------------|--------------|
|-0-0-0-0-2-|-0-0-0-2-0-|-0-0-2-0-|--0--0-0-0-2-0-0-0-|-2-0-0-0-2-0--|
|-0-0-0-0h2-|-0-0-0h2-0-|-0-0h2-0-|--0--0-0-0h2-0-0-0h|=2-0-0-0h2-0--|


|-----------|-----------|---------|-------------------|--------------|
|-----------|-----------|---------|-------------------|--------------|
|-----------|-----------|---------|-------------------|--------------|
|-----------|-----------|---------|-------------------|--------------|
|-0-0-0-0-2-|-0-0-0-2-0-|-0-0-2-0-|--0--0-0-0-2-0-0-0-|-2-0-0-0-2-0--|
|-0-0-0-0h2-|-0-0-0h2-0-|-0-0h2-0-|--0--0-0-0h2-0-0-0h|=2-0-0-0h2-0--|


|-|
|-|
|-|
|-|
|-|
|-|
            
Submit corrections

comments powered by Disqus
↑ Back to top | Pantera Tabs for Uplift. Lyrics for acoustic guitar and electric guitar. Tablatures and chords are parodies/interpretations of the original songs. You may use it for private study, scholarship, research or language learning purposes only