>
 >
Uplift

Uplift Bass Tabs

Pantera - Uplift chords, tabs, tablatures, lyrics

Guitar lessons | Add/correct | Request | Top 50 tabs Artists:  A B C D E F G H I J K L M N O P Q R S T U V W X Y Z 0-9

Uplift Bass Tabs – Pantera

CD, Sheet music, Poster

Do you like Uplift? Share with your friends now
Bass TabsBass Tabs v2TabsTabs v2
-------------------------------------------------------------------------------
			     UPLIFT - Pantera
-------------------------------------------------------------------------------


Tuning: Tune down 1 step (5 String Bass)



   Intro
     W                   W                   W                   W                 
F||-------------------|-------------------|-------------------|-------------------|
C||-------------------|-------------------|-------------------|-------------------|
G||-------------------|-------------------|-------------------|-------------------|
D||-------------------|-------------------|-------------------|-------------------|
A||-------------------|-------------------|-------------------|-------------------|


  S  S S  S S E  S S  S S  S S E  S    S  S S  S S E  S S  S  S S  S S S  S  
------------------------------------|---------------------------------------|
------------------------------------|---------------------------------------|
------------3----------------3------|------------3--------------3p-2--------|
--5p-0-3p-0---5--0-5p-0-3p-0---5--0-|--5p-0-3p-0---5--0-3p-2p-0------5-2p-0-|
------------------------------------|---------------------------------------|


  S  S S  S S E  S S  S S  S S E  S    S  S S  S S E  S S S S S S S S S  
------------------------------------|-----------------------------------|
------------------------------------|-----------------------------------|
------------3----------------3------|------------3----------------------|
--5p-0-3p-0---5--0-5p-0-3p-0---5--0-|--5p-0-3p-0---5--0-1-0-0-2-0-0-3-0-|
------------------------------------|-----------------------------------|


  S  S S  S S E  S S  S S  S S E  S    S  S S  S S E  S S  S  S S  S S S  S  
------------------------------------|---------------------------------------|
------------------------------------|---------------------------------------|
------------3----------------3------|------------3--------------3p-2--------|
--5p-0-3p-0---5--0-5p-0-3p-0---5--0-|--5p-0-3p-0---5--0-3p-2p-0------5-2p-0-|
------------------------------------|---------------------------------------|

                                                                         Verse 1
  S  S S  S S E  S S  S S  S S E  S    S  S S  S S E  S S S S S S S S S    Q    E  E   H         
------------------------------------|-----------------------------------|-----------------------|
------------------------------------|-----------------------------------|-----------------------|
------------3----------------3------|------------3----------------------|-----------------------|
--5p-0-3p-0---5--0-5p-0-3p-0---5--0-|--5p-0-3p-0---5--0-1-0-0-2-0-0-3-0-|--5----L--L\-----------|
------------------------------------|-----------------------------------|-----------------------|


  W                   W                   W                   S  S S  S S E  S S  S S  S S E  S  
-------------------|-------------------|-------------------|------------------------------------|
-------------------|-------------------|-------------------|------------------------------------|
-------------------|-------------------|-------------------|------------3----------------3------|
-------------------|-------------------|-------------------|--5p-0-3p-0---5--0-5p-0-3p-0---5--0-|
-------------------|-------------------|-------------------|------------------------------------|


  S  S S  S S E  S S  S  S S  S S S  S    S  S S  S S E  S S  S S  S S E  S  
---------------------------------------|------------------------------------|
---------------------------------------|------------------------------------|
------------3--------------3p-2--------|------------3----------------3------|
--5p-0-3p-0---5--0-3p-2p-0------5-2p-0-|--5p-0-3p-0---5--0-5p-0-3p-0---5--0-|
---------------------------------------|------------------------------------|


  S  S S  S S E  S S S S S S S S S    S  S S  S S E  S S  S S  S S E  S  
-----------------------------------|------------------------------------|
-----------------------------------|------------------------------------|
------------3----------------------|------------3----------------3------|
--5p-0-3p-0---5--0-1-0-0-2-0-0-3-0-|--5p-0-3p-0---5--0-5p-0-3p-0---5--0-|
-----------------------------------|------------------------------------|


  S  S S  S S E  S S  S  S S  S S S  S    S  S S  S S E  S S  S S  S S E  S  
---------------------------------------|------------------------------------|
---------------------------------------|------------------------------------|
------------3--------------3p-2--------|------------3----------------3------|
--5p-0-3p-0---5--0-3p-2p-0------5-2p-0-|--5p-0-3p-0---5--0-5p-0-3p-0---5--0-|
---------------------------------------|------------------------------------|


  S  S S  S S E  S E.  S E  E  Q       E.  S E  E  S S S S S   S E   
------------------------------------|-------------------------------|
------------------------------------|-------------------------------|
------------3------3---2-L--1-------|--------------------3-5br-L-3--|
--5p-0-3p-0---5--0------------------|--3---4-L--5----3-5------------|
------------------------------------|-------------------------------|

Chorus 1
  E  E  S S S S S S S S S S S S    E  E  S S S S S S S S S S S S  
--------------------------------|--------------------------------|
--------------------------------|--------------------------------|
--------------------------------|--------------------------------|
--0--0--0-0-1-2-0-0-2-3-0-0-3-4-|--0--0--0-0-1-2-0-0-2-3-0-0-3-4-|
--------------------------------|--------------------------------|


        |--3--|  |--3--|  |--3--|                                                            
  E  E  E  E  E  E  E  E  E  E  E     E  E  S S S S S S S S S S S S    Q    E  E   H         
-----------------------------------|--------------------------------|-----------------------|
-----------------------------------|--------------------------------|-----------------------|
-----------------------------------|--------------------------------|-----------------------|
--0--0--0--1--2--3--4--5--6--7--8--|--0--0--0-0-1-2-0-0-2-3-0-0-3-4-|--5----L--L\-----------|
-----------------------------------|--------------------------------|-----------------------|

                                                                Verse 2
  W                   Q    E  E   H           W                   Q    E  E   H         
-------------------|-----------------------|-------------------|-----------------------|
-------------------|-----------------------|-------------------|-----------------------|
-------------------|-----------------------|-------------------|-----------------------|
-------------------|--5----L--L\-----------|-------------------|--5----L--L\-----------|
-------------------|-----------------------|-------------------|-----------------------|


  W                   W                   W                   S  S S  S S E  S S  S S  S S E  S  
-------------------|-------------------|-------------------|------------------------------------|
-------------------|-------------------|-------------------|------------------------------------|
-------------------|-------------------|-------------------|------------3----------------3------|
-------------------|-------------------|-------------------|--5p-0-3p-0---5--0-5p-0-3p-0---5--0-|
-------------------|-------------------|-------------------|------------------------------------|


  S  S S  S S E  S S  S  S S  S S S  S    S  S S  S S E  S S  S S  S S E  S  
---------------------------------------|------------------------------------|
---------------------------------------|------------------------------------|
------------3--------------3p-2--------|------------3----------------3------|
--5p-0-3p-0---5--0-3p-2p-0------5-2p-0-|--5p-0-3p-0---5--0-5p-0-3p-0---5--0-|
---------------------------------------|------------------------------------|


  S  S S  S S E  S S S S S S S S S    S  S S  S S E  S S  S S  S S E  S  
-----------------------------------|------------------------------------|
-----------------------------------|------------------------------------|
------------3----------------------|------------3----------------3------|
--5p-0-3p-0---5--0-1-0-0-2-0-0-3-0-|--5p-0-3p-0---5--0-5p-0-3p-0---5--0-|
-----------------------------------|------------------------------------|


  S  S S  S S E  S S  S  S S  S S S  S    S  S S  S S E  S S  S S  S S E  S  
---------------------------------------|------------------------------------|
---------------------------------------|------------------------------------|
------------3--------------3p-2--------|------------3----------------3------|
--5p-0-3p-0---5--0-3p-2p-0------5-2p-0-|--5p-0-3p-0---5--0-5p-0-3p-0---5--0-|
---------------------------------------|------------------------------------|


  S  S S  S S E  S E.  S E  E  Q       E.  S E  E  S S S S S   S E   
------------------------------------|-------------------------------|
------------------------------------|-------------------------------|
------------3------3---2-L--1-------|--------------------3-5br-L-3--|
--5p-0-3p-0---5--0------------------|--3---4-L--5----3-5------------|
------------------------------------|-------------------------------|

Chorus 2
  E  E  S S S S S S S S S S S S    E  E  S S S S S S S S S S S S  
--------------------------------|--------------------------------|
--------------------------------|--------------------------------|
--------------------------------|--------------------------------|
--0--0--0-0-1-2-0-0-2-3-0-0-3-4-|--0--0--0-0-1-2-0-0-2-3-0-0-3-4-|
--------------------------------|--------------------------------|


        |--3--|  |--3--|  |--3--|                                    
  E  E  E  E  E  E  E  E  E  E  E     E  E  S S S S S S S S S S S S  
-----------------------------------|--------------------------------|
-----------------------------------|--------------------------------|
-----------------------------------|--------------------------------|
--0--0--0--1--2--3--4--5--6--7--8--|--0--0--0-0-1-2-0-0-2-3-0-0-3-4-|
-----------------------------------|--------------------------------|

Breakdown
  S S E  S E.  S  S S S S S E     S S E  Q    H           S S E  S E  S S S S S S S E   
-------------------------------|-----------------------|-------------------------------|
-------------------------------|-----------------------|--------------4-L--------------|
-------------------------------|-----------------------|-----------7------7-5----------|
--0-0-0----5---Lp-3-3-5-5-5-3--|--0-0-0----------------|--0-0-0---------------7-6-5-3--|
-------------------------------|-----------------------|-------------------------------|


  S S E  Q    H           S S E  S S S S S   S S S S  S S  S    S S E  Q    H         
-----------------------|--------------------------------7h-9-|-----------------------|
-----------------------|-------------------------5-7h-9------|-----------------------|
-----------------------|---------------5-L-----5-------------|-----------------------|
--0-0-0----------------|--0-0-0--3-0-7-----5g7---------------|--0-0-0----------------|
-----------------------|-------------------------------------|-----------------------|


                                      |--3--|                            
  S S E  Q    H           S S E  Q    E  E  E  Q       W                 
-----------------------|----------------------------|-------------------|
-----------------------|----------------------------|-------------------|
-----------------------|----------------------------|-------------------|
--0-0-0----------------|--0-0-0---------------------|-------------------|
-----------------------|--------------7--6--5--4----|--L----------------|

Bridge
  E  S S S E  S S E  S E  E      E  S S S E  S S E  S E  E      E  S S S E  S S E  S E  E    
------------------------------|------------------------------|------------------------------|
------------------------------|------------------------------|------------------------------|
------------------------------|------------------------------|------------------------------|
--0--0-0-0-6--0-0-6--0-6--L\--|--0--0-0-0-6--0-0-6--0-6--L\--|--0--0-0-0-6--0-0-6--0-6--L\--|
------------------------------|------------------------------|------------------------------|


  E  S S S E  S S E  S E  E      E  E  Q    E  E  Q       E  E  Q     E  E  E  E   
------------------------------|------------------------|--------------------------|
------------------------------|------------------------|--------------------------|
------------------------------|------------------------|--------------------------|
--0--0-0-0-6--0-0-6--0-6--L\--|--0--0--6----0--0--6----|--0--0--8~----0--1--L--1--|
------------------------------|------------------------|--------------------------|


  E  E  Q    E  E  Q       E  E  Q    E  E  E  E     E  S S S E  S S E  S E  E    
------------------------|-------------------------|------------------------------|
------------------------|-------------------------|------------------------------|
------------------------|-------------------------|------------------------------|
--0--0--6----0--0--6----|--0--0--8----0--1--L--1--|--0--0-0-0-6--0-0-6--0-6--L\--|
------------------------|-------------------------|------------------------------|


  E  S S S E  S S E  S E  E      E  S S S E  S S E  S E  E      E  S S S E  S S E  S E  E    
------------------------------|------------------------------|------------------------------|
------------------------------|------------------------------|------------------------------|
------------------------------|------------------------------|------------------------------|
--0--0-0-0-6--0-0-6--0-6--L\--|--0--0-0-0-6--0-0-6--0-6--L\--|--0--0-0-0-6--0-0-6--0-6--L\--|
------------------------------|------------------------------|------------------------------|


  E  E  Q    E  E  Q       E  E  Q     E  E  E  E     E  E  Q    E  E  Q     
------------------------|--------------------------|------------------------|
------------------------|--------------------------|------------------------|
------------------------|--------------------------|------------------------|
--0--0--6----0--0--6----|--0--0--8~----0--1--L--1--|--0--0--6----0--0--6----|
------------------------|--------------------------|------------------------|


  E  E  Q    E  E  E  E     E  S S S E  S S E  S E  E      E  S S S E  S S E  S E  E    
-------------------------|------------------------------|------------------------------|
-------------------------|------------------------------|------------------------------|
-------------------------|------------------------------|------------------------------|
--0--0--8----0--1--L--1--|--0--0-0-0-6--0-0-6--0-6--L\--|--0--0-0-0-6--0-0-6--0-6--L\--|
-------------------------|------------------------------|------------------------------|


  E  S S S E  S S E  S E  E      E  S S S E  S S E  S E  E      E  S S E  S S E  S S E  S S  
------------------------------|------------------------------|------------------------------|
------------------------------|------------------------------|------------------------------|
------------------------------|------------------------------|------------------------------|
--0--0-0-0-6--0-0-6--0-6--L\--|--0--0-0-0-6--0-0-6--0-6--L\--|--7--7-7-7--7-7-7--7-7-7--7-7-|
------------------------------|------------------------------|------------------------------|


  E  S S E  S S E  E  S S E     E  S S E  S S E  S S E  S S    S S S S S S S S S S S S S S S S  
-----------------------------|------------------------------|----------------------------------|
-----------------------------|------------------------------|----------------------------------|
-----------------------------|------------------------------|----------------------------------|
--7--7-7-7--7-7-7--6--6-6-6--|--7--7-7-7--7-7-7--7-7-7--7-7-|--7-6-6-6-6-5-5-5-5-3-3-3-3-1-1-1-|
-----------------------------|------------------------------|----------------------------------|

             Chorus 3
                                                      |--3--|  |--3--|  |--3--|   
  Q    Q       E  E  S S S S S S S S S S S S    E  E  E  E  E  E  E  E  E  E  E   
------------|--------------------------------|-----------------------------------|
------------|--------------------------------|-----------------------------------|
------------|--------------------------------|-----------------------------------|
--0---------|--0--0--0-0-1-2-0-0-2-3-0-0-3-4-|--0--0--0--1--2--3--4--5--6--7--8--|
------------|--------------------------------|-----------------------------------|


                                         |--3--|  |--3--|  |--3--|   
  E  E  S S S S S S S S S S S S    E  E  E  E  E  E  E  E  E  E  E   
--------------------------------|-----------------------------------|
--------------------------------|-----------------------------------|
--------------------------------|-----------------------------------|
--0--0--0-0-1-2-0-0-2-3-0-0-3-4-|--0--0--0--1--2--3--4--5--6--7--8--|
--------------------------------|-----------------------------------|


                                         |--3--|  |--3--|  |--3--|   
  E  E  S S S S S S S S S S S S    E  E  E  E  E  E  E  E  E  E  E   
--------------------------------|-----------------------------------|
--------------------------------|-----------------------------------|
--------------------------------|-----------------------------------|
--0--0--0-0-1-2-0-0-2-3-0-0-3-4-|--0--0--0--1--2--3--4--5--6--7--8--|
--------------------------------|-----------------------------------|


                                         |--3--|  |--3--|  |--3--|   
  E  E  S S S S S S S S S S S S    E  E  E  E  E  E  E  E  E  E  E   
--------------------------------|-----------------------------------|
--------------------------------|-----------------------------------|
--------------------------------|-----------------------------------|
--0--0--0-0-1-2-0-0-2-3-0-0-3-4-|--0--0--0--1--2--3--4--5--6--7--8--|
--------------------------------|-----------------------------------|

   
  Q    Q    H                                          
-----------------------------------------------------||
-----------------------------------------------------||
-----------------------------------------------------||
--0--------------------------------------------------||
-----------------------------------------------------||




Duration Legend
---------------
W - whole
H - half
Q - quarter
E - 8th
S - 16th
T - 32nd
X - 64th
. - note dotted
|-n-|  - n-tuplets


Tablature Legend
----------------
L - tied note
x - dead note
g - grace note
(n) - ghost note
> - accentuded note
NH - natural harmonic
AH - artificial harmonic
TH - tapped harmonic
SH - semi harmonic
PH - pitch harmonic
h - hammer on
p - pull off
b - bend
br - bendRelease
pb - preBend
pbr - preBendRelease
brb - bendReleaseBend
\n/ - tremolo bar dip
\n - tremolo bar dive
-/n - tremolo bar Release up
/n\ - tremolo bar inverted dip
/n - tremolo bar return
-\n - tremolo bar Release down
S - shift slide
s - legato slide
/ -  slide into from below or out of upwards
\ -  slide into from above or out of downwards
~ - vibrato
W - wide vibrato
tr - trill
TP - tremolo picking
T - tapping
S - slap
P - pop
< - fade in
^ - brush up
v - brush down





Comments


Popular Pantera tabs & chords
Becoming Bass Tabs
Well Grind That Axe For A Long Time Bass Tabs
13 Steps To Nowhere 1 Tabs
Cowboys From Hell 3 Tabs
Dgttm Intro Tabs
Metal Magic Tabs
Primal Concrete Sledge 2 Tabs
Slaughtered 1 Tabs
The Art Of Shredding 6 Tabs
This Love 1 Tabs


Song lyrics



↑ Back to top | Tablatures and chords are parodies/interpretations of the original songs. You may use it for private study, scholarship, research or language learning purposes only
© 2014 AZChords.com Contact us | Privacy policy | DMCA | Add/correct tabs | Request tabs | Top 50 tabs