» » »

I'm Broken Tabs (ver.1)

Artists:  A B C D E F G H I J K L M N O P Q R S T U V W X Y Z # 

I'm Broken Tabs (ver.1)

Pantera
Rating:
0/5 (0 votes)

Tabs too difficult? Try these video lessons and learn fast.
                tuning:standard low(e,a,d,g,b,e)

Intro
---2br-2br----------2br-2br-------------2br-2br-------------2br-2br-------------
------------2-0----------------2-0----------------2-0----------------2-0--------
----------------3-0-----------------3-0----------------3-0----------------3-0---
pm                                                                          *

Chorus:
--------------------------------------------------7br---------------------------
---2br-2br-----------5/7-5--2br-2br------5/7-5-7/9-----2br-2br-----------5/7-5--
----------2-0---5/7-5--------------2-0------------------------2-0---5/7-5-------
-------------3-0----------------------3-0------------------------3-0------------

-------------------------------------|
-------------------------------------|
-------------------------------------|
---2br-2br---------------------------|
-------------2-0---------------------|
------------------3-0---00---00------|
pm                       *    *

Verse
-------x8-------------------x8----------------------------------------------
---0-5br5br-0---76567---0-7br7br-0---56530-23210-56530-23210---56530-23210--
pm          *                    *       *     *     *     *

Now….
---------------------|
---------------------|
---------------------|
---------------------|
---------------------|
---56530-23210---0---|
pm           *   *


Chorus: 
---------------------------------------------------7br--------------------------
---2br-2br-----------5/7-5--2br-2br------5/7-5--7/9----2br-2br-----------5/7-5--
----------2-0---5/7-5--------------2-0------------------------2-0---5/7-5-------
-------------3-0----------------------3-0------------------------3-0------------

----------------------------------|
----------------------------------|
----------------------------------|
---2br-2br------------------------|
-------------2-0------------------|
------------------3-0---00---00---|
pm                       *    *

Verse
-------x8-------------------x8----------------------------------------------
---0-5br5br-0---76567---0-7br7br-0---56530-23210-56530-23210---56530-23210--pm          *                    *       *     *     *     *

Now….
---------------------|
---------------------|
---------------------|
---------------------|
---------------------|
---56530-23210---0---|
pm           *   *

Chorus:              
----------------------------------------------------7br-------------------------
---2br-2br------------5/7-5--2br-2br------5/7-5--7/9---2br-2br-----------5/7-5--
----------2-0----5/7-5--------------2-0-----------------------2-0---5/7-5-------
--------------3-0----------------------3-0-----------------------3-0------------

----------------------------------|
----------------------------------|
----------------------------------|
---2br-2br------------------------|
-------------2-0------------------|
------------------3-0---00---00---|
pm                       *    *

Bridge:             
--------------------------------------------5--------------------------5-----
---00---00---00---00---00---00---00---76567---7---00---00---00---76567---7---
pm  *    *    *    *    *    *    *                *    *    *

------------------------5--------------------------5-----------------------|
---00---00---00---76567---7---00---00---00---76567---7---1-1---1-1---1-1---|
pm  *    *    *                *    *    *                 *     *     *

---56530-23210-56530-23210-56530-23210-56530-23210---0---1/(?)br---|
pm                                               *   *

Above: Note in parenthasis; i think its around fret 12 or a slightly lower
fret on the a string.

Solo:

Chorus:            
---------------------------------------------------7br--------------------------
---2br-2br-----------5/7-5--2br-2br------5/7-5--7/9---2br-2br-----------5/7-5---
----------2-0---5/7-5--------------2-0-----------------------2-0---5/7-5--------
-------------3-0----------------------3-0-----------------------3-0-------------

----------------------------------|
----------------------------------|
----------------------------------|
---2br-2br------------------------|
-------------2-0------------------|
------------------3-0---00---00---|
pm                       *    *

---------------------------------------------------------|
---------------------------------------------------------|
---------------------------------------------------------|
---------------------------------------------------------|
---------------------------------------------------------|
---56530-23210-56530-23210-56530-23210-56530-23210---0---|
pm                                               *   *

Chorus:
            
---------------------------------------------------7br--------------------------
---2br-2br-----------5/7-5--2br-2br------5/7-5--7/9----2br-2br-----------5/7-5--
----------2-0---5/7-5--------------2-0------------------------2-0---5/7-5-------
-------------3-0----------------------3-0------------------------3-0------------
 
----------------------------------|
----------------------------------|
----------------------------------|
---2br-2br------------------------|
-------------2-0------------------|
------------------3-0---00---00---|
pm                       *    *

Outro:                   
-----------------------|-----------------------------------------------------|
-----------------------|-----------------------------------------------------|
-----------------------|-----------------------------------------------------|
-----------------------|----------------------------------(Repeat-to-fade)---|
-----------------------|-----------------------------5-----------------------|
---00---00---00---00---|---00---00---00---76567---7--------------------------|
pm  *    *    *    *        *    *    *

there it is listen to the song and you'll get it
            
Tabs too difficult? Try these video lessons and learn fast.




comments powered by Disqus
↑ Back to top | Tablatures and chords are parodies/interpretations of the original songs. You may use it for private study, scholarship, research or language learning purposes only