» » »

Pantera, Walk Tabs (ver.1)

Artists:  A B C D E F G H I J K L M N O P Q R S T U V W X Y Z # 

Walk Tabs (ver.1)

Pantera Tabs
 Rating:
4/5 (4 votes)
Walk lessons Tabs too difficult? Try these video lessons and learn fast
1
                P       A       N       T       E       R       A

  WALK - guitar solo
Vulgar Display of Power

  full      full
|----------|----------------------------10----------------------10-------|
|-12b---13b|-~--10----10-------------------13-10-------------------13-10-|
|-12b------|-------13----13-12-10-12-13----------13-12-10-12-13----------|
|----------|-------------------------------------------------------------|
|----------|-------------------------------------------------------------|
|----------|-------------------------------------------------------------|
  

            vib.       full  2  full
|----------12b~---10-12-----10b-----10-|
|-----------------------13b-----13b----|
|-13-12-10-----------------------------|
|--------------------------------------|
|--------------------------------------|
|--------------------------------------|

   full
|--------10-14-10---10-14-10-14-10----10-------------|
|-13b------------------------------13----13-10-13-10-|
|----------------------------------------------------|
|----------------------------------------------------|
|----------------------------------------------------|
|----------------------------------------------------|

|-----------------------------------------------------|
|----10-----------------------------------------------|
|-13----13-12-10----12----10h11----10-11-10----10h11b-|
|----------------12----12-------------------12--------|
|-----------------------------------------------------|
|-----------------------------------------------------|

    2 vib.                 2.5 vib.                          1.5
|--------------------------------|-------|-13----15----16----18b----|
|--------------------------------|-------|--------------------------|
|-(11b)~--10-11b--11----10-11b~~-|-~~~---|--------------------------|
|--------------------------------|-------|--------------------------|
|--------------------------------|-------|--------------------------|
|--------------------------------|-------|--------------------------|

                                  2  full full  vib. w/bar---
|----------6-7-6---|-------------------------|--------------|
|-3--------------8-|-5-6-5-------------------|--------------|
|-3----------------|-------7-4-5-4br---5b-5b-|-3~~~-5-/--5/-|
|-3--5-3-5---------|-------------------------|--------------|
|------------------|-------------------------|--------------|
|------------------|-------------------------|--------------|

             vib.
|-----------------|--------------------------------------|
|-----------------|--------------------------------------|
|---------12~~~~~-|-----12-------12-------12-------12----|
|-/x-5-/----------|-/12----12-11----11h12----12-11----11-|
|-----------------|--------------------------------------|
|-----------------|--------------------------------------|

                   full vib.
|----------------------------|----8------10-------14-------17-----|
|-------------------------3/-|-/7---7/10----10/13----13/16----16/-|
|-----12----12----12b~~~-----|------------------------------------|
|-h12----12----12------------|------------------------------------|
|----------------------------|------------------------------------|
|----------------------------|------------------------------------|

                   1.5     A.H. dive w/bar
|-----20----20----20b-----|------------||
|-/19----19----19---------|-x----\-----||
|-------------------------|------------||
|-------------------------|------------||
|-------------------------|------------||
|-------------------------|------------||
            
Submit corrections

comments powered by Disqus
↑ Back to top | Pantera Tabs for Walk. Lyrics for acoustic guitar and electric guitar. 1 Tablatures and chords are parodies/interpretations of the original songs. You may use it for private study, scholarship, research or language learning purposes only